Limp Bizkit - No Sex Chords & Tabs

 

No Sex Chords & Tabs

Limp Bizkit Chords & Tabs

Version: 9 Type: Tab 0 ratings
1 star 2 stars 3 stars 4 stars 5 stars
comments

No Sex Tab

Song: No sex
Band: Limp Bizkit
Album: Significant Other

Transcribed by Mauro Pazmino (beatingmedown@ecuarock.com)

Tuned to C

Intro and Verse
Play whit a flanger or a phaser
"Went to fast, way to soon...."

|-------------------------------------------|
|-------------------------------------------|
|-----7--------7--------5-------------------|
|-------------------------------------------|
|--5-----5-----------3-----3----------------|
|-----------6-----0-----------4-------------|

Chorus  (0:50)

"Should left my pants of this time"
Distortion
|-----------------------------------------------------------------------|
|-----------------------------------------------------------------------|
|--9-9-9-9--5-5-5-5-----------------9-9-9-9-5-5-5-7-7-7/8-8-8-----------|
|--9-9-9-9--5-5-5-5-5-5-5-5-4-4-4-4-9-9-9-9-5-5-5-----------------------|
|--7-7-7-7--3-3-3-3-5-5-5-5-4-4-4-4-7-7-7-7-3-3-3-5-5-5/6-6-6-----------|
|-------------------3-3-3-3-2-2-2-2-------------------------------------|


Bridge (2:16)
|-------------------|--------------------|----------------|-----------------|
|-------------------|--------------------|----------------|-----------------|                             
|-------------------|--------------------|----------------|7-7-7-7-8-8-8-9--|
|--6-6-6-6-------4--|--6-6-6-6-------4---|6-6-6-6-------4-|-----------------|
|--4-4-4-4--7-7--2--|--4-4-4-4--7-7--2---|4-4-4-4--7-7--2-|5-5-5-5-6-6-6-7--|
|-----------7-7-----|-----------7-7------|---------7-7----|-----------------|

Bridge 2
 (2:36)
"You couldn't respect yourself"
|-----------------------|
|-------6-5---8---------|
|-----6-----6---9-8-----|
|-----------------------|
|-----------------------|
|-----------------------|

Bridge 3  (2:55)

"realize thet I'm worth more than that"
This part is with palm mute
|------------------------------------|
|------------------------------------|
|------------------------------------|
|---6-6-6-------------4-4-4--5-5-5-5-|
|---4-4-4--7-7-7-7-7--2-2-2--3-3-3-3-|
|----------7-7-7-7-7-----------------|
pm....................................

Chorus

3:14
"Should left my pants of this time"
Distortion
|-----------------------------------------------------------------------|
|-----------------------------------------------------------------------|
|--9-9-9-9--5-5-5-5-----------------9-9-9-9-5-5-5-7-7-7/8-8-8-----------|
|--9-9-9-9--5-5-5-5-5-5-5-5-4-4-4-4-9-9-9-9-5-5-5-----------------------|
|--7-7-7-7--3-3-3-3-5-5-5-5-4-4-4-4-7-7-7-7-3-3-3-5-5-5/6-6-6-----------|
|-------------------3-3-3-3-2-2-2-2-------------------------------------|


Outro 3:34

|-------------------|--------------------|----------------|-----------------|
|-------------------|--------------------|----------------|-----------------|                             
|-------------------|--------------------|----------------|7-7-7-7-8-8-8-9--|
|--6-6-6-6-------4--|--6-6-6-6-------4---|6-6-6-6-------4-|-----------------|
|--4-4-4-4--7-7--2--|--4-4-4-4--7-7--2---|4-4-4-4--7-7--2-|5-5-5-5-6-6-6-7--|
|-----------7-7-----|-----------7-7------|---------7-7----|-----------------|



[ Tab from: http://www.guitartabs.cc/tabs/l/limp_bizkit/no_sex_tab_ver_9.html ]
 
: Ultimate Guitar Archive :: 
ttp://www.ultimate-guitar.com 
To: submit@ultimate-guitar.com
ubject: New Tabs
-From: sergeev@ttg-russia.ru
Limp Bizkit, No sex.
Tabbed by Mauro Pazmino, beatingmedown@ecuarock.com .
 


ong: No sex
Band: Limp Bizkit
Album: Significant Other

Transcribed by Mauro Pazmino (beatingmedown@ecuarock.com)

Tuned to C

Intro and Verse
Play whit a flanger or a phaser
"Went to fast, way to soon...."

|-------------------------------------------|
|-------------------------------------------|
|-----7--------7--------5-------------------|
|-------------------------------------------|
|--5-----5-----------3-----3----------------|
|-----------6-----0-----------4-------------|

Chorus  (0:50)

"Should left my pants of this time"
Distortion
|-----------------------------------------------------------------------|
|-----------------------------------------------------------------------|
|--9-9-9-9--5-5-5-5-----------------9-9-9-9-5-5-5-7-7-7/8-8-8-----------|
|--9-9-9-9--5-5-5-5-5-5-5-5-4-4-4-4-9-9-9-9-5-5-5-----------------------|
|--7-7-7-7--3-3-3-3-5-5-5-5-4-4-4-4-7-7-7-7-3-3-3-5-5-5/6-6-6-----------|
|-------------------3-3-3-3-2-2-2-2-------------------------------------|


Bridge (2:16)
|-------------------|--------------------|----------------|-----------------|
|-------------------|--------------------|----------------|-----------------|                             
|-------------------|--------------------|----------------|7-7-7-7-8-8-8-9--|
|--6-6-6-6-------4--|--6-6-6-6-------4---|6-6-6-6-------4-|-----------------|
|--4-4-4-4--7-7--2--|--4-4-4-4--7-7--2---|4-4-4-4--7-7--2-|5-5-5-5-6-6-6-7--|
|-----------7-7-----|-----------7-7------|---------7-7----|-----------------|

Bridge 2
 (2:36)
"You couldn't respect yourself"
|-----------------------|
|-------6-5---8---------|
|-----6-----6---9-8-----|
|-----------------------|
|-----------------------|
|-----------------------|

Bridge 3  (2:55)

"realize thet I'm worth more than that"
This part is with palm mute
|------------------------------------|
|------------------------------------|
|------------------------------------|
|---6-6-6-------------4-4-4--5-5-5-5-|
|---4-4-4--7-7-7-7-7--2-2-2--3-3-3-3-|
|----------7-7-7-7-7-----------------|
pm....................................

Chorus

3:14
"Should left my pants of this time"
Distortion
|-----------------------------------------------------------------------|
|-----------------------------------------------------------------------|
|--9-9-9-9--5-5-5-5-----------------9-9-9-9-5-5-5-7-7-7/8-8-8-----------|
|--9-9-9-9--5-5-5-5-5-5-5-5-4-4-4-4-9-9-9-9-5-5-5-----------------------|
|--7-7-7-7--3-3-3-3-5-5-5-5-4-4-4-4-7-7-7-7-3-3-3-5-5-5/6-6-6-----------|
|-------------------3-3-3-3-2-2-2-2-------------------------------------|


Outro 3:34

|-------------------|--------------------|----------------|-----------------|
|-------------------|--------------------|----------------|-----------------|                             
|-------------------|--------------------|----------------|7-7-7-7-8-8-8-9--|
|--6-6-6-6-------4--|--6-6-6-6-------4---|6-6-6-6-------4-|-----------------|
|--4-4-4-4--7-7--2--|--4-4-4-4--7-7--2---|4-4-4-4--7-7--2-|5-5-5-5-6-6-6-7--|
|-----------7-7-----|-----------7-7------|---------7-7----|-----------------|



:: Ultimate Guitar Archive :: 
http://www.ultimate-guitar.com 


Comments