Limp Bizkit - No Sex Chords & Tabs

 

No Sex Chords & Tabs

Limp Bizkit Chords & Tabs

Version: 6 Type: Tab 0 ratings
1 star 2 stars 3 stars 4 stars 5 stars
comments

No Sex Tab

   
"No Sex"
Limp Bizkit
"Significant Other"
released 1999
tabbed by Erin Rasberry (rasberry@c-gate.net)
standard tuning

intro/verse "went too fast, way too soon.." 

e--------------------
b--------------------
g--------------------
d--------------------
a-2-2-2-----0-0-0---
e------3-3-3------1-

pre chorus: "sex has become all I know.."
e---------------------------
b---------------------------
g-4-4-4---------------------
d-4-4-4-5-5-5--7-7-7--3-3-3-
a-2-2-2-5-5-5--7-7-7--3-3-3-
e-------3-3-3--5-5-5--1-1-1-
[ Tab from: http://www.guitartabs.cc/tabs/l/limp_bizkit/no_sex_tab_ver_6.html ]
chorus: "I should've left my pants on this time.."  
e----------------------------  e---*
b----------------------------  b---*
g----------------9-9-9-------  g---* 
d-11-11-11-7-7-7-9-9-9-9-9-9-  d-9-*
a-11-11-11-7-7-7-7-7-7-9-9-9-  a-9-*
e--9--9--9-5-5-5-------7-9-9-  e-7-*  
                               "wait.."

verse 2: "it's my ass, and your perfume.."
        repeat intro/verse 

repeat prechorus and chorus "sex has become all I know.."
                            "should've left my pants on.."

after "you let me dive right in"
e----------------
b----------------
g--6-6-6-6-6-6---   repeat 3 times, on the
d--6-6-6-6-6-6-7-         3rd, add:
a--4-4-4-4-4-4-7-
e--------------5-

e------                       e---
b------                       b---
g------ then pick around on   g-6-
d-9-10-                       d-6-
a-9-10-                       a-4-
e-7--8-                       e---

repeat chorus riff for "how could you respect yourself?" and
                       "realize that I mean more than that" and
                        the last chorus, finish with

e----*
b----*
g----*
d-11-*
a-11-*
e--9-*
Comments