Limp Bizkit - No Sex Chords & Tabs

 

No Sex Chords & Tabs

Limp Bizkit Chords & Tabs

Version: 3 Type: Tab 0 ratings
1 star 2 stars 3 stars 4 stars 5 stars
comments

No Sex Tab

Artist: Limp Bizkit
Song: "No Sex"
Album: Significant Other
Transcribed by: feeder2003@aol.com "Barry"


Intro:
e|-------------------------|
B|-------------------------|
G|---4------4--------2-----|
D|-------------------------|
A|-2---2----------0----0---|
E|-------3------0--------1-|

Verse: The same thing

Chorus: "Should have left my pants on..."
The beat isn't given! It's simple to figure out, but too long to write!
e|---|---|---|---|
B|---|---|---|---|
G|-6-|---|---|---|
D|-6-|-6-|-4-|-2-|
A|-4-|-6-|-4-|-2-|
E|---|-4-|-2-|-0-|
[ Tab from: http://www.guitartabs.cc/tabs/l/limp_bizkit/no_sex_tab_ver_3.html ]
"But instead you had to let me dive right in..."
|---|---|---|---|
|---|---|---|---|
|-6-|---|-4-|-5-|
|-6-|-6-|-4-|-5-|
|-4-|-6-|-2-|-3-|
|---|-4-|---|---|
Go back to the beginning of the Chorus, and repeat once.
After the 2nd Chorus, Wes Borland plays this into the Bridge. Then he
plays
it at the end of the song. You'll hear it. It's very noticeable!
The last few chords of the song slow down (retardando).

(Beat not given)
e|---|---|---|---|---|---|---|---|---|
B|---|---|---|---|---|---|---|---|---|
G|-6-|---|-6-|---|-6-|---|-4-|-5-|-6-|
D|-6-|-6-|-6-|-6-|-6-|-6-|-4-|-5-|-6-|
A|-4-|-6-|-4-|-6-|-4-|-6-|-2-|-3-|-4-|
E|---|-4-|---|-4-|---|-4-|---|---|---|

Bridge: "How could you, respect yourself..."
e|-----------2-|------------2-|
B|-5-4---4-5---|-5----4-------|
G|-------------|--------------|
D|-------------|--------------|
A|-------------|--------------|
E|-------------|--------------|
Repeat last half

"Realize that I'm worth more than that..."
PALM MUTE ALL! (Beat not given)
|---|---|---|---|
|---|---|---|---|
|-6-|---|-4-|-5-|
|-6-|-6-|-4-|-5-|
|-4-|-6-|-2-|-3-|
|---|-4-|---|---|
Repeat

Back to Chorus

That's it!
Comments