Limp Bizkit - No Sex Chords & Tabs

 

No Sex Chords & Tabs

Limp Bizkit Chords & Tabs

Version: 1 Type: Tab 0 ratings
1 star 2 stars 3 stars 4 stars 5 stars
comments

No Sex Tab

Limp Bizkit - No Sex
Album - Significant Other
Tabbed By: PhreeQ



I have no idea if this is right, but it sounds close enough for now, and this is one bloody good album, get it if you dont got it!!

intro (some sort of light effect, maybe wah?)
E|----------------------------|
B|---0------0--------0--------|
G|----------------------------|
D|----------------------------|
A|-2---2---------0------0-----|
E|--------3----3-----------1--|              

[ Tab from: http://www.guitartabs.cc/tabs/l/limp_bizkit/no_sex_tab.html ]
Chorus
E|--------------------------------|
B|--------------------------------|
G|-6-6-6---------9-9-9------------|
D|-6-6-6-7-7-7-7-9-9-9-9-9-9-9----|
A|-4-4-4-7-7-7-7-7-7-7-9-9-9-9----|
E|-------5-5-5-5-------7-7-7-7----|

intro then chorus

E|----------------|
B|----------------|
G|-6-6-6-6-6------|
D|-6-6-6-6-6-7----|
A|-4-4-4-4-6-7----|
E|-----------5----|

this is the quiet part 'how can you respect yourself.....'

E|--------------------------------------------|
B|--------------------------------------------|
G|--7----7-----6-----6---6--6-h-7----7----6---|
D|--------------------------------------------|
A|--------------------------------------------|
E|--------------------------------------------|


hmm i think this is all to it............email me if u think anything is outta place p12ick@hotmail.com

Comments