Limp Bizkit - No Sex Chords & Tabs

 

No Sex Chords & Tabs

Limp Bizkit Chords & Tabs

Version: 2 Type: Bass Tab 0 ratings
1 star 2 stars 3 stars 4 stars 5 stars
comments

No Sex Bass Tab

   
This is completely right.  Drop strings down 1.5 steps. (low to
high:C#,F#,B,E)

Wes starts, then Fred. Bass Breaks in after a bit

    "Sex has become all i know about you"  (let notes ring)
E    ---------------
B    ---------------  4x
F#   ---5-----3---
C#  ------6-----4-

    chorus "should have left my pants on this time"
E   --------------------------------------------------------------------------------
B   ------------------55---442---------------------------------------------55---442------
F#  --777-------------------------777--------55566666777---------------------777----------55566666
C#  -------888883---22-------------88888------------------888883---22---------------88888-----

   pre verse
E   ----------------  1x
B   ----------------
F#  ---5-----3----
C#  ------6-----4-

   verse 2  "It's my ass, your perfume that make temptations hard to
refuse"
E   ---------------
B   ---------------  8x
F#  ---5-----3----
C#  ------6-----4-

    chorus
E   ----------------------------------------------------------------------------------
B   --------------55---442----------------------------------------------55---442--------------
F#  --777----------------------777--------55566666777---------------------777---------55566666
C#  -------888883---22-------------88888------------------888883---22------------88888--------
[ Tab from: http://www.guitartabs.cc/tabs/l/limp_bizkit/no_sex_btab_ver_2.html ]
    fill                                  end fill
E   -----------------------           E   -----------------------------
B    ---------------------    3x      B   ---------------------------- 1x
F#  ---------------------3            F#  -5555555566666666
C#  0---000000-0----                  C#  -----------------------------

   Bass solo
E    -----------------------------------------------
B    -----------------------------------------------
F#   7-----10^---5-------7-----10^---5---3---  3x
C#  -----------------------------------------------

   "realize that i mean more than that"

E    ---------------------------  4x
B    ----------------------------
F#  --777-------55556666
C#  ------88888-------------

    chorus
E  --------------------------------------------------------------------------------------------
B  ------------------55---442---------------------------------------------55---442-------------
F#  --777-------------------------777--------55566666777---------------------777-------55566666
C#  -------888883---22-------------88888------------------888883---22---------88888------------



    fill                                  
E   ------------------------
F#  ---------------------3--          
B    -----------------------    3x        
C#  0---000000-0-----

  end
E   ----------------------------
B   ----------------------------
F#  ---5-5-5-5 66-66-6--7
C#  ---------------------------          

Comments