Limp Bizkit - No Sex Chords & Tabs

 

No Sex Chords & Tabs

Limp Bizkit Chords & Tabs

Version: 1 Type: Bass Tab 0 ratings
1 star 2 stars 3 stars 4 stars 5 stars
comments

No Sex Bass Tab

artist: limp bizkit
song: no sex
tabbed by: david bakker
e-mail: bakker139@zonnet.nl


verse
G---------------------------------------------------------------------------------
D---------------------------------------------------------------------------------
A--2-------------0----------------------------------------------------------------
D-------5----------------4--------------------------------------------------------
[ Tab from: http://www.guitartabs.cc/tabs/l/limp_bizkit/no_sex_btab.html ]
chous/ "realize I'm worth more than that" part ( only second part )
G-------------------------------------|-------------------------------------------
D-------------------------------------|-------------------------------------------
A-4-4-4-------------------------------|--4-4-4-----------2-2-2--3-3-3-3-----------
D---------7-7-7-7---2-2-2--1-1-1--2-1-|---------7-7-7-7---------------------------

sometimes after chorus
G---------------------------------------------------------------------------------
D---------------------------------------------------------------------------------
A---2--4--4--4--4-----------------------------------------------------------------
D-------------------7-7-7---------------------------------------------------------

bridge ( how could you respect yourself)
G---------------------------------------------------------------------------------
D------------4--------------------------------------------------------------------
A---4---4/7------2----------------------------------------------------------------
D---------------------------------------------------------------------------------

Comments