Limp Bizkit - N 2 Gether Now Chords & Tabs

 

N 2 Gether Now Chords & Tabs

Limp Bizkit Chords & Tabs

Version: 1 Type: Tab 0 ratings
1 star 2 stars 3 stars 4 stars 5 stars
comments

N 2 Gether Now Tab

Tabbed by: Bryce Cooley (sekalfnrok@kornfreak.com)


[ Tab from: http://www.guitartabs.cc/tabs/l/limp_bizkit/n_2_gether_now_tab.html ]
(Intro)
E----------------------------------------------------------------------------|
B-----------------------16--------16--------16--------16---------16----------|
G-----------------------16--------16--------16--------16--------------16-----|
D-18-18-18-18-18-----------18--------18--------18-------18----------------18-|
A----------------------------------------------------------------------------|
E----------------------------------------------------------------------------|


(verse & chorus)
E-------------------------------------------|
B-16---16---16---16-------------------------|
G-16---16---16--------16--------------------|
D-18-----------------------18---------------|
A-------------------------------------------|
E-------------------------------------------|


Comments