Limp Bizkit - My Way Chords & Tabs

 

My Way Chords & Tabs

Limp Bizkit Chords & Tabs

Version: 3 Type: Tab 0 ratings
1 star 2 stars 3 stars 4 stars 5 stars
comments

My Way Tab

   
My Way - Limp Bizkit
Tabbed By: Sisqo650 a.k.a Joe Dude


Tuning:  E-A-D(Flat)-G-B-E

I was bored one day and this song was just playin' on my MP3 player. These are
the most accurate tabs you will ever find.. i think







	Into: Clean w/ ecco...		Chorus: Heavy Distortion
 |---------9----------------------|---------------------------------------------------|
 |---6-----9------7---------------|---6------7---7/9----9-----6-----7-----------------|
 |---6-----7------4---------------|---4-----------------------4----------9------------|
 |---4-----7------4---------------|---4------7---7-7----7-----4-----7----7------------|
 |---4-----7------4---------------|---4------7---7-7----7-----4-----7----7------------|
 |---4-----7------4---------------|---4------7---7-7----7-----4-----7----7------------|
[ Tab from: http://www.guitartabs.cc/tabs/l/limp_bizkit/my_way_tab_ver_3.html ]
					that little solo part
 |---------------------------------|--------------------------------------------------|
 |---------------------------------|--------------------------------------------------|
 |---4-4--4-7-4-7---4--4--4-7-4-7--|-----------------6----------------------------11--|
 |---4-4--4-7-4-7---4--4--4-7-4-7--|-----9----5----5-------7------14----10-----10-----|
 |---4-4--4-7-4-7---4--4--4-7-4-7--|---6-----2----2-------4----11------7-----7--------|
 |---4-4--4-7-4-7---4--4--4-7-4-7--|-4------0-----------2-----9------5----------------|




 |----------|---------------------------------------------------------------------------|
 |----------|---------------------------------------------------------------------------|
 |----------|---------------------------------------------------------------------------|
 |------12--|--------Outro:-Same-as-the-chorus-but-played-clean-w/-ecco-----------------|
 |----9-----|---------------------------------------------------------------------------|
 |--7-------|---------------------------------------------------------------------------|



Question, Comments? e-mail me: sisqo650@aol.com
Comments