Limp Bizkit - My Way Chords & Tabs

 

My Way Chords & Tabs

Limp Bizkit Chords & Tabs

Version: 2 Type: Tab 1 rating
1 star 2 stars 3 stars 4 stars 5 stars
comments

My Way Tab

7-string, reg. tunning

ok, i have noticed this song tabbed HORRIBLY, so id like to clear up a little confusion...

intro: (sounds sorta like a piano or synth.)

------------|-------------|-----------|----------------|
------------|-------------|-----------|----------------|
------------|-6-----------|-----------|--6-------------|
-3----------|-------6-----|--3--------|------6---------|  
------------|-------------|-----------|----------------|
------------|-5-----------|-----------|--5-------------|
-2----------|-------5-----|--2--------|------5---------|

chorus:

------------|------------|------------|------------|
------------|------------|------------|------------|
------------|------------|------------|------------|
------------|------------|------------|------------|
------------|------------|------------|------------|
-444444444--|-777777777--|-444444444--|-777777777--|
-222222222--|-555555555--|-222222222--|-555555555--|

Bridge:

------------|------------|
------------|------------|
------------|------------|
------------|------------|  x4
------------|-22-2-22-2--|
-44x4xxxxxx-|-00-0-00-0--|
-22x2xxxxxx-|---2-2--2---|

That cool part:
[ Tab from: http://www.guitartabs.cc/tabs/l/limp_bizkit/my_way_tab_ver_2.html ]
------------|------------|------------|------------|
------------|------------|------------|------------|
------------|----6-------|----8------4|----11----11|
-----8-----4|--4--------6|--6-----2---|--9-----0---|
---6-----2--|2--------4--|4-----0-----|7-----7-----|
4------0----|-------2----|------------|------------|
------------|------------|------------|------------|

outro:
 (guitar 1)
------------|------------|------------|------------|
--6---------|--7------9--|--6---------|--7------5--|
------------|------------|------------|------------|
------------|------------|------------|------------|
------------|------------|------------|------------|
------------|------------|------------|------------|
------------|------------|------------|------------|

(guitar 2)
------------|------------|------------|------------|
------------|------------|------------|------------|
------------|------------|------------|------------|
------------|------------|------------|------------|
--4---------|--2------2--|--4---------|--2------2--|
--4---------|--2------2--|--4---------|--2------2--|
--2---------|--0------0--|--2---------|--0------0--|

thats about it, if ya got a suggestion (or an insult abhow bad my ear is) email me at :Slapnutz69@msn.com, all comments apreciated
Comments