Limp Bizkit - My Way Chords & Tabs

 

My Way Chords & Tabs

Limp Bizkit Chords & Tabs

Version: 3 Type: Bass Tab 0 ratings
1 star 2 stars 3 stars 4 stars 5 stars
comments

My Way Bass Tab

Limp Bizkit - My Way
Tabbed By Mark Craig
Email: bigmc@24stadium.freeserve.co.uk

9~ - Vibrato

Verse

G---------------17------|------------9---|
D-------------17------17|-----------9---9|
A-----------15------17--|----------7---9-|
E-3-2\-2h3--------15----|-3-2\-2h3----7--|

Chorus

G-------------------|----------------------|
D-------------------|----------------------|
A-44444444/77777777-|-44444444/7777/9999\77|
E-------------------|----------------------|

Chorus 2
[ Tab from: http://www.guitartabs.cc/tabs/l/limp_bizkit/my_way_btab_ver_3.html ]
G------------------------------------|
D------------------------------------|
A-00000000/3333/5555-----------------|
E-------------------55555555\22222222|

Bridge

G-------------|
D---------7~--|
A-9~--5~----7~|
E-------------|

G----------------------4-----|--------------------------------|
D--------6-----2----4------4-|-------11-----7------17------14-|
A-----6-----2----2------4----|----11-----7------17------14----|
E--4-----0-----------2-------|--9-----5------15-----11--------|

Structure:

Intro - No Bass
Verse X4
Chorus 1 X2
Verse X4
Chorus 1 X2
Chorus 2 X2
Guitar Bridge - No Bass
Bridge X1
Guitar - No Bass
Chorus 1 X2
Chorus 2 X2
End - No Bass

ENJOY!
Comments