Limp Bizkit - My Way Chords & Tabs

 

My Way Chords & Tabs

Limp Bizkit Chords & Tabs

Version: 1 Type: Bass Tab 0 ratings
1 star 2 stars 3 stars 4 stars 5 stars
comments

My Way Bass Tab

Limp Bizkit – My Way (Bass Tab)
Tabbed by Dave Costello
A truly great bass part, which I’ve tabbed for a four string bass

Verse riff:

C#------0-----------------------------------------------
F#-------------------------15--------------17----------
B -----------------------------17-----------------------
E ---------------------------------17-----------19-----

This is repeated through the verse with Variation.

Chorus:

------0---0----0----0----3---3---3---3---3---0---0--0--0---3---3---3--3--
---------------------------------------------------------------------------------
---------------------------------------------------------------------------------
---------------------------------------------------------------------------------

There is a little variation such as a octave being played here and there.

The bridge is the same chords, just different rhythm to the chorus

Solo: When bass comes in
[ Tab from: http://www.guitartabs.cc/tabs/l/limp_bizkit/my_way_btab.html ]
------------------8---------10--------0----------------------------
------------/7---------10----------------------7---------------7---
---------------------------------------------------------9-----------
---------------------------------------------------------------------

-----3-------------------------------------------------------------5----------------------
------------5--------------5--------5------------------------------------7------------7-
-------------------5------------------------7--------------7--------------------7--------
----------------------------------------------------7-------------------------------------

---------------------------------8----------------------------------------------10-----------
-----7---------------------------------10------------10-------10------------------12------
------------9------------9--------------------10-------------------12------------------12-
------------------9-------------------------------------------------------12-----------------






 
Comments