Limp Bizkit - My Generation Chords & Tabs

 

My Generation Chords & Tabs

Limp Bizkit Chords & Tabs

Version: 5 Type: Tab 1 rating
1 star 2 stars 3 stars 4 stars 5 stars
comments

My Generation Tab

   
This song is tuned down 1 and 1/2 steps
(c#,f#,b,e,g#,c#)
/\=harmonic 
\=slide down
/=slide up

Chorus
--------------------------------------------------
--------------------------------------------------
--------------------------------------------------
--2--2---2--2--6-5-5---5-----2--2---2--2-5---5---5
--2--2---2--2--6-5-5---5-----2--2---2--2-5---5---5
--0--0---0--0--4-3-3-0-3-----0--0---0--0-3-0-3-0-3


Verse
-----------------------
-----------------------
-----------------------
-----------------------
----------/\-----------
--0--0--4-4------------

[ Tab from: http://www.guitartabs.cc/tabs/l/limp_bizkit/my_generation_tab_ver_5.html ]
Pre chorus
           so go a head and talk s**t
           talk s**t about me
           go ahead and talk s**t               about my g-g-generation
------------------------------------------------
------------------------------------------------
------------------------------------------------
--5--5--5------------------------------5--5-----
--5--5--5------------------------------5--5-----
--3--3--3------------------------------3--3--4\3



Solo

----------------------------------
----------------------------------
----------------------------------
----------------------------------
----7\5---5/7--------5------------        this is palm muted,then
--0-----0-----0-0--3---3--0--1-3-1        goes heavy     


----------------------------------
----------------------------------
----------------------------------
-----------------------------3----
----7\5---5/7--------5-------3----
--0-----0-----0-0--3---3--0--1----





outro

---------------------------------------
---------------------------------------
---------------------------------------
--5----5---5---5---5----5---5---5---5-2
--5----5---5---5---5----5---5---5---5-2
--3--0-3-0-3-0-3-0-3--0-3-0-3-0-3-0-3-0

Comment,Questions E-mail Brian@thompo38.freeserve.co.uk 




Comments