Limp Bizkit - My Generation Chords & Tabs

 

My Generation Chords & Tabs

Limp Bizkit Chords & Tabs

Version: 4 Type: Tab 0 ratings
1 star 2 stars 3 stars 4 stars 5 stars
comments

My Generation Tab

   
Song: My generation
Band: LImp Bizkit
Album: chocolate star fish and the hot dog flavored water
Transcribed by: Lee(crazy_freik)

Ive seen many versions and tunnings of this song, I prefer
to tune it Db Ab Db Gb Bb Eb, mainly because its easier.

*-Harmonics
x-mute


Intro

Eb--------------------------------------------
Bb--------------------------------------------
Gb--------------------------------------------
Db-00----00-----3333-44-33--------------------
Ab-00----00-----3333-44-33--------------------
Db-00-4*-00-4*--3333-44-33-------------------- When playing the harmonics, place your
                                               pick closer to the bridge of the guitar
                                               to get a better sound.                                
Verse

Db-----------------------
Ab-----------------------
Db-00-4*4*--00-4*4*-00-4*

Prechorus
[ Tab from: http://www.guitartabs.cc/tabs/l/limp_bizkit/my_generation_tab_ver_4.html ]
Db-333-33-3-333-33-3-
Ab-333-33-3-333-33-3-
Db-333-33-3-333-33-3-

Chorus

Db-00----00----333-44-33-
Ab-00----00----333-44-33-
Db-00-4*-00-4*-333-44-33-

Verse-Prechorus-Chorus
Then play
Db-4-4-3-
Ab-4-4-3-
Db-4-4-3-Hold out


Bridge

No dist.
Eb--------------------------   
Bb--------------------------
Gb--------------------------
Db--------------------------   --------------------1-
Ab--------3-5---------------   -------3-5----------1-
Db--0-0-0-----0-3-0-5-2-3-2-   -0-0-0----0-3-5-0-3-1-

This is the heavy part of the song\w heavy dist.
Db-------------------------    ---------------------1-
Ab-------3-5---------------    -------3-5-----------1-
Db-0-0-0-----0-3-0-0-2-3-2-    -0-0-0-----0-3-5-0-3-1-

Then back to the prechorus
Then chorus

Ending
Db-3-003003030303-0-
Ab-3-003003030303-0-
Db-3-003003030303-0-


That is it if you have somethin to correct, mail me at
crazy_freik@yahoo.com
Comments