Limp Bizkit - My Generation Chords & Tabs

 

My Generation Chords & Tabs

Limp Bizkit Chords & Tabs

Version: 2 Type: Tab 0 ratings
1 star 2 stars 3 stars 4 stars 5 stars
comments

My Generation Tab

When you hear the guitar start its like this:

Intro:
|------------------|
|------------------|
|------------------|
|-2-2--5-5-5-5-5-5-|
|-2-2--5-5-5-5-5-5-|
|-0-0--3-0-3-0-3-0-|

Verse:

|----------------|
|----------------|
|----------------|
|----------------|
|----------------|
|-0-4-4-0-4-4-0-4|  just repeat that a couple of times


Chorus:

|--------|---------|
|--------|---------|
|--------|---------|
|-5-5-5--|-5-5-5-5-|
|-5-5-5--|-5-5-5-5-|
|-3-3-3--|-3-3-3-3-|

|----------------|
|----------------|
|----------------|
|-6-6-6--5-5-5-5-|
|-6-6-6--5-5-5-5-|
|-4-4-4--3-3-3-3-|

Verse:

|----------------|
|----------------|
|----------------|
|----------------|
|----------------|
|-0-4-4-0-4-4-0-4|  just repeat that a couple of times


Chorus:
[ Tab from: http://www.guitartabs.cc/tabs/l/limp_bizkit/my_generation_tab_ver_2.html ]
|--------|---------|
|--------|---------|
|--------|---------|
|-5-5-5--|-5-5-5-5-|
|-5-5-5--|-5-5-5-5-|
|-3-3-3--|-3-3-3-3-|

|----------------|
|----------------|
|----------------|
|-6-6-6--5-5-5-5-|
|-6-6-6--5-5-5-5-|
|-4-4-4--3-3-3-3-| 



Now when it slows down:

|---------------------|           |---------------------------|
|---------------------|           |---------------------------|
|---------------------|           |---------------------------|
|---------------------|           |7--5-5-5-5-5-5-3-3---------|
|-------8-------------|           |7--5-5-5-5-5-5-3-3---------|
|-8-7-7---5--3--1---3-|P.M.       |5--3-3-0-0-3-3-0-0---------|


Chorus:

|--------|---------|
|--------|---------|
|--------|---------|
|-5-5-5--|-5-5-5-5-|
|-5-5-5--|-5-5-5-5-|
|-3-3-3--|-3-3-3-3-|

|----------------|
|----------------|
|----------------|
|-6-6-6--5-5-5-5-|
|-6-6-6--5-5-5-5-|
|-4-4-4--3-3-3-3-|
Comments