Limp Bizkit - My Generation Chords & Tabs

 

My Generation Chords & Tabs

Limp Bizkit Chords & Tabs

Version: 14 Type: Tab 0 ratings
1 star 2 stars 3 stars 4 stars 5 stars
comments

My Generation Tab

   
Limp Bizkit - My Generation
This tab is perfect!!!
Dropped D + half lowered tuning!!!

    C#C#  C#C#  F#E C#C#E  C#    C#C#  C#C#  E  C#E  C#E   3x
|-----------------------------|----------------------------||
|-----------------------------|----------------------------||
|*----------------------------|---------------------------*||
|*--0-0---0-0---5-3-0-0-3--0--|--0-0---0-0---3--0-3--0-3--*||
|---0-0---0-0---5-3-0-0-3--0--|--0-0---0-0---3--0-3--0-3---||
|---0-0---0-0---5-3-0-0-3--0--|--0-0---0-0---3--0-3--0-3---||


                                                                7x
-------------------------------||-------------------------------||
-------------------------------||-------------------------------||
*-----------------------------*||*-----------------------------*||
*-----------------------------*||*-----------------------------*||
-------------------------------||-------------------------------||
---0-0-4--4--0-0-4--4--0-0-4---||---0-0-4--4--0-0-4--4--0-0-4---||


   C# C# C#         C#    C# C#                  C#C#  C#C#  F#E C#C#E  C#  
-----------------------|---------------------||----------------------------|
-----------------------|---------------------||----------------------------|
*----------------------|--------------------*||----------------------------|
*--3--3--3----------3--|--3--3--------------*||--0-0---0-0---5-3-0-0-3--0--|
---3--3--3----------3--|--3--3---------------||--0-0---0-0---5-3-0-0-3--0--|
---3--3--3----------3--|--3--3---------------||--0-0---0-0---5-3-0-0-3--0--|


  C#C#  C#C#  E  C#E  C#E     C#C#  C#C#  F#E C#C#E  C#                     
---------------------------|----------------------------|------------------|
---------------------------|----------------------------|------------------|
---------------------------|----------------------------|------------------|
--0-0---0-0---3--0-3--0-3--|--0-0---0-0---5-3-0-0-3--0--|------------------|
--0-0---0-0---3--0-3--0-3--|--0-0---0-0---5-3-0-0-3--0--|------------------|
--0-0---0-0---3--0-3--0-3--|--0-0---0-0---5-3-0-0-3--0--|------------------|


                                7x   C# C# C#         C#  
|-------------------------------||-----------------------|
|-------------------------------||-----------------------|
|*-----------------------------*||*----------------------|
|*-----------------------------*||*--3--3--3----------3--|
|-------------------------------||---3--3--3----------3--|
|---0-0-4--4--0-0-4--4--0-0-4---||---3--3--3----------3--|


  C# C#                   C#C#  C#C#  F#E C#C#E  C#  
---------------------||-----------------------------|
---------------------||-----------------------------|
--------------------*||*----------------------------|
--3--3--------------*||*--0-0---0-0---5-3-0-0-3--0--|
--3--3---------------||---0-0---0-0---5-3-0-0-3--0--|
--3--3---------------||---0-0---0-0---5-3-0-0-3--0--|


  C#C#  C#C#  E  C#E  C#E     C#C#  C#C#  F#E C#C#E  C#                       
---------------------------|----------------------------|-------------------||
---------------------------|----------------------------|-------------------||
---------------------------|----------------------------|------------------*||
--0-0---0-0---3--0-3--0-3--|--0-0---0-0---5-3-0-0-3--0--|------------------*||
--0-0---0-0---3--0-3--0-3--|--0-0---0-0---5-3-0-0-3--0--|-------------------||
--0-0---0-0---3--0-3--0-3--|--0-0---0-0---5-3-0-0-3--0--|-------------------||

[ Tab from: http://www.guitartabs.cc/tabs/l/limp_bizkit/my_generation_tab_ver_14.html ]
  C#   C# D#   D#   C# C#                                      
-------------------------||-----------------------------------|
-------------------------||-----------------------------------|
-------------------------||*----------------------------------|
--3----3--2----2--0-0--0-||*----0-------0---------------------|
--3----3--2----2--0-0--0-||-------3-0-3---3-0---3-------------|
--3----3--2----2--0-0--0-||---0---------------3---3-0-1-3-1-0-|


                                                                   
-------------------------------|----------------------------------|
-------------------------------|----------------------------------|
-------------------------------|----------------------------------|
----0-------0------------------|----0-------0---------------------|
------3-0-3---3-0---3----------|------3-0-3---3-0---3-------------|
--0---------------3---3-0-1----|--0---------------3---3-0-1-3-1-0-|


                                                                      
--------------------------------||-----------------------------------|
--------------------------------||-----------------------------------|
-------------------------------*||*----------------------------------|
----0-------0------------------*||*----0-------0---------------------|
------3-0-3---3-0---3-----------||-------3-0-3---3-0---3-------------|
--0---------------3---3-0-1-----||---0---------------3---3-0-1-3-1-0-|


                                3x                                    
--------------------------------||-----------------------------------|
--------------------------------||-----------------------------------|
-------------------------------*||*----------------------------------|
----0-------0------------------*||*----0-------0---------------------|
------3-0-3---3-0---3-----------||-------3-0-3---3-0---3-------------|
--0---------------3---3-0-1-----||---0---------------3---3-0-1-3-1-0-|


                                3x   C# C# C#         C#  
--------------------------------||-----------------------|
--------------------------------||-----------------------|
-------------------------------*||*----------------------|
----0-------0------------------*||*--3--3--3----------3--|
------3-0-3---3-0---3-----------||---3--3--3----------3--|
--0---------------3---3-0-1-----||---3--3--3----------3--|


  C# C#                   C#C#  C#C#  F#E C#C#E  C#  
---------------------||-----------------------------|
---------------------||-----------------------------|
--------------------*||*----------------------------|
--3--3--------------*||*--0-0---0-0---5-3-0-0-3--0--|
--3--3---------------||---0-0---0-0---5-3-0-0-3--0--|
--3--3---------------||---0-0---0-0---5-3-0-0-3--0--|


  C#C#  C#C#  E  C#E  C#E     C#C#  C#C#  F#E C#C#E  C#                     2x
---------------------------|----------------------------|-------------------||
---------------------------|----------------------------|-------------------||
---------------------------|----------------------------|------------------*||
--0-0---0-0---3--0-3--0-3--|--0-0---0-0---5-3-0-0-3--0--|------------------*||
--0-0---0-0---3--0-3--0-3--|--0-0---0-0---5-3-0-0-3--0--|-------------------||
--0-0---0-0---3--0-3--0-3--|--0-0---0-0---5-3-0-0-3--0--|-------------------||


  C#E C#E  C#E  C#E C#E  C#E     C#                 
------------------------------|-------------------||
------------------------------|-------------------||
------------------------------|-------------------||
--0-3-0-3--0-3--0-3-0-3--0-3--|--0----------------||
--0-3-0-3--0-3--0-3-0-3--0-3--|--0----------------||
--0-3-0-3--0-3--0-3-0-3--0-3--|--0----------------||
Comments