Limp Bizkit - My Generation Chords & Tabs

 

My Generation Chords & Tabs

Limp Bizkit Chords & Tabs

Version: 13 Type: Tab 0 ratings
1 star 2 stars 3 stars 4 stars 5 stars
comments

My Generation Tab

   
Tuning C# F# B E G# C#

INTRO

w/slight PM throughout

-----------------------------------------------------------
-----------------------------------------------------------
-----------------------------------------------------------
--2--2----2--2----6---5--5-----5--2------------------------
--2--2----2--2----6---5--5-----5--2------------------------
--0--0----0--0----4---3--3--0--3--0------------------------


-----------------------------------------------------------
-----------------------------------------------------------
-----------------------------------------------------------
--2--2-------2--2------5--------5---------5----------------
--2--2-------2--2------5--------5---------5----------------
--0--0-------0--0------3--0--0--3------0--3----------------



     harm------|              harm---|        harm
PM---|    w/trem bar PM-----|         PM----|    
-----------------------------------------------------------
-----------------------------------------------------------
-----------------------------------------------------------
-----------------------------------------------------------
---------------^--------------------^----------------------
--0--0--4------4-------0----0--4----4----0---0--4----------
*w/trem bar pointed backwards strike bar
rapidly to cause pitch to go sharp.


    harm------|              harm---|        harm
PM---|                PM-----|         PM----|    
-----------------------------------------------------------
-----------------------------------------------------------
-----------------------------------------------------------
-----------------------------------------------------------
---------------^--------------------^----------------------
--0--0--4------4-------0----0--4----4----0---0--4----------



VERSE


     harm------|              harm---|        harm
PM---|    w/trem bar PM-----|         PM----|    
-----------------------------------------------------------
-----------------------------------------------------------
-----------------------------------------------------------
-----------------------------------------------------------
---------------^--------------------^----------------------
--0--0--4------4-------0----0--4----4----0---0--4----------



 harm------|              harm---|        harm
PM---|                PM-----|         PM----|    
-----------------------------------------------------------
-----------------------------------------------------------
-----------------------------------------------------------
-----------------------------------------------------------
---------------^--------------------^----------------------
--0--0--4------4-------0----0--4----4----0---0--4----------



PRE-CHORUS
Ok i'm being lazy here not giving exact times for when you play the x3 part but you should figure it out
[ Tab from: http://www.guitartabs.cc/tabs/l/limp_bizkit/my_generation_tab_ver_13.html ]
                           harm
            x3 then 
-----------------------------------------------------------
-----------------------------------------------------------
-----------------------------------------------------------
---5---5---5--------5---5----------------------------------
---5---5---5--------5---5----------------------------------
---3---3---5--------3---3---3/4----------------------------
                           *Overdubbed harmonic  



CHORUS

-----------------------------------------------------------
-----------------------------------------------------------
-----------------------------------------------------------
--2--2----2--2----6---5--5-----5--2------------------------
--2--2----2--2----6---5--5-----5--2------------------------
--0--0----0--0----4---3--3--0--3--0------------------------


PRE-BRIDGE

-----------------------------------------------------------
-----------------------------------------------------------
-----------------------------------------------------------
--6------6------5------5---------X--3----3-----------------
--6------6------5------5---------X--3----3-----------------
--4------4------3------3------0--X--1----1-----------------


BRIGDE

CLEAN  

W/PM throughout
-----------------------------------------------------------
-----------------------------------------------------------
-----------------------------------------------------------
-----------------------------------------------------------
-----7h5----5h7----------5---------------------------------
--0-------0-----0--0--3----3---0----1-3-1------------------


-----------------------------------------------------------
-----------------------------------------------------------
-----------------------------------------------------------
-----------------------------------------------------------
-----7h5----5h7----------5----------3----------------------
--0-------0-----0--0--3----3---0----1----------------------



Fred says FUCK

DISTORTION

-----------------------------------------------------------
-----------------------------------------------------------
-----------------------------------------------------------
-----------------------------------------------------------
-----7h5----5h7----------5---------------------------------
--0-------0-----0--0--3----3---0----1-3-1------------------


-----------------------------------------------------------
-----------------------------------------------------------
-----------------------------------------------------------
------------------------------------3----------------------
-----7h5----5h7----------5----------3----------------------
--0-------0-----0--0--3----3---0----1----------------------


OUTRO


-----------------------------------------------------------
-----------------------------------------------------------
-----------------------------------------------------------
--5--------5---------5--5--------5----------5-----2--------
--5--------5---------5--5--------5----------5-----2--------
--3--0--0--3------0--3--3--0--0--3-------0--3-----0--------
Comments