Limp Bizkit - My Generation Chords & Tabs

 

My Generation Chords & Tabs

Limp Bizkit Chords & Tabs

Version: 12 Type: Tab 0 ratings
1 star 2 stars 3 stars 4 stars 5 stars
comments

My Generation Tab

#----------------------------------PLEASE NOTE--------------------------------#
#This file is the author's own work and represents their interpretation of the#
#song. You may only use this file for private study, scholarship, or research.#
#-----------------------------------------------------------------------------#
#-- File created with Instab - http://www.pconline.com/~smcarey/instab.html --#
#-----------------------------------------------------------------------------#

Author/Artist: Limp Bizkit
Title: My Generation
Album: zu lang
Transcribed by: Martin Rojek
Email: MartinRojek@web.de

Ich weiss nicht ob dass alles stimmt. Ich spiel es jedenfalls
so und es hört sich fett an.
Tuning:Die tiefe E-Seite wird auf Cis rundergestimmt.
Die anderen einen halbton tiefer.

------------------------|------------------------|----------------------------
------------------------|------------------------|----------------------------
------------------------|------------------------|----------------------------
-0-0--0-0--4-0-3-0-3--0-|-0-0--0-0--3-3-0-3--0-3-|----------------------------
-0-0--0-0--4-0-3-0-3--0-|-0-0--0-0--3-3-0-3--0-3-|----------------------------
-0-0--0-0--4-0-3-0-3--0-|-0-0--0-0--3-3-0-3--0-3-|----------------------------
 ...My Generation.....get up..       4x                                       
[ Tab from: http://www.guitartabs.cc/tabs/l/limp_bizkit/my_generation_tab_ver_12.html ]
------------------------|------------------------|----------------------------
------------------------|------------------------|----------------------------
------------------------|------------------------|----------------------------
------------------------|3-3-3----3--3-3---------|-3-3-3----3--3-3----5^------
-------7^------7^-------|3-3-3----3--3-3---------|-3-3-3----3--3-3----5^------
-0-0-9^--0-0-9^--0-0-9^-|3-3-3----3--3-3---------|-3-3-3----3--3-3----5^------
 Do you know.....         ..talk shit about me...                             

------------------|-------------------------------|-------------------------|-
------------------|-------------------------------|-------------------------|-
------------------|-------------------------------|-------------------------|-
-4--4-3--3--1-1-1-|-------------------------------|-------------------------|-
-4--4-3--3--1-1-1-|---5-3-0-3-5-3-0---------------|--5-3-0-3-5-3-0----------|-
-4--4-3--3--1-1-1-|-0---------------3-5-3-0-1-3-1-|0---------------3-5-3-0-1|-
                   Who gets the....do you think we can fly.....               

------------------------------|-----------------------------------------------
------------------------------|-----------------------------------------------
------------------------------|-----------------------------------------------
-3-3-x-3-x-3-x-3-3-x-3-x-3-0--|-----------------------------------------------
-3-3-x-3-x-3-x-3-3-x-3-x-3-0--|-----------------------------------------------
-3-3-x-3-x-3-x-3-3-x-3-x-3-0--|-----------------------------------------------
 ..oh yeah...                                                                 

Comments