Limp Bizkit - Mission Impossible Theme Chords & Tabs

 

Mission Impossible Theme Chords & Tabs

Limp Bizkit Chords & Tabs

Version: 2 Type: Tab 0 ratings
1 star 2 stars 3 stars 4 stars 5 stars
comments

Mission Impossible Theme Tab

ok folks, i tried this a couple times and i am pretty damn sure its right..this is the intro, and you play it during basically the whole song too.

[ Tab from: http://www.guitartabs.cc/tabs/l/limp_bizkit/mission_impossible_theme_tab_ver_2.html ]
------------------------------------------------------------
------------------------------------------------------------
------------------------------------------------------------     >
------------------8/7------------------------------------8/7     
--7-7-7--7-7--10-------7-7-7--7-7--------7-7-7--7-7--10-----
-----------------------------------8-9----------------------


---------------------------------------------
---------------------------------------------
---------------------------------------------
---------------------------------------------
--7-7-7-----8--8--8--8--8//9-----------------
---------------------------------------------

well there u go, i\'ll work on it some more later, c ya
Comments