Limp Bizkit - Mission Impossible Chords & Tabs

 

Mission Impossible Chords & Tabs

Limp Bizkit Chords & Tabs

Version: 1 Type: Tab 0 ratings
1 star 2 stars 3 stars 4 stars 5 stars
comments

Mission Impossible Tab

hey ya'll this is my first submission but i'm pretty sure everything's right anyways.

Intro: 
E------------------------------------------------------------------------------------------------
B------------------------------------------------------------------------------------------------
G------------------------------------------------------------------------------------------------
D-------------------4---6p4-------------------------------------------------------------------
A----6--6--6--6-------------6--6--6--6----6-6-4-5---------------------------------------
E------------------------------------------------------------------------------------------------
[ Tab from: http://www.guitartabs.cc/tabs/l/limp_bizkit/mission_impossible_tab.html ]
other little riff:
E----14--11--------14--11---------14--11--------14--11------------------------------
B---------------11-----------------------------------------------11-11-11-10-10-10----
G--------------------------------14--------------13------------------------------------------
D-----------------------------------------------------------------------------------------------
A-----------------------------------------------------------------------------------------------
E-----------------------------------------------------------------------------------------------

heavier part:
E--------------------------------------------------------------------------------------------------------
B--------------------------------------------------------------------------------------------------------
G--------------------------------------------------------------------------------------------------------
D----4--4----7--9----4--4--2--3--------------------------------------------------------------------
A----4--4----7--9----4--4--2--3--------------------------------------------------------------------
E----2--2----5--7----2--2--0--1--------------------------------------------------------------------
Comments