Limp Bizkit - Mission Impossible 2 Theme Chords & Tabs

 

Mission Impossible 2 Theme Chords & Tabs

Limp Bizkit Chords & Tabs

Version: 3 Type: Tab 0 ratings
1 star 2 stars 3 stars 4 stars 5 stars
comments

Mission Impossible 2 Theme Tab

IM not sure this is right but i think it sounds right.

--------------------------------------------------
--------------------------------------------------
-------------0-2-0--------------------------------
----2-2-2-2--------------2-2-2-2--0-1-------------
--------------------------------------------------
------------------------------------------- repeat this 8 times

---15-12--------15-12--------15-12--------15-12-----------------
----------12-----------11----------10-----------13-13-12--------
----------------------------------------------------------------
----------------------------------------------------------------
----------------------------------------------------------------
---------------------------------------------------repeat this once

--------------------------------------------------
--------------------------------------------------
-------------0-2-0--------------------------------
----2-2-2-2--------------2-2-2-2--0-1-------------
--------------------------------------------------
------------------------------------------- repeat once 

---15-12--------15-12--------15-12--------15-12-----------------
----------12-----------11----------10-----------13-13-12--------
----------------------------------------------------------------
----------------------------------------------------------------
----------------------------------------------------------------
---------------------------------------------------repeat this once

------------------------------------------------------
------------------------------------------------------
------------------------------------------------------
------------------------------------------------------
------------------------------------------------------
-0-2-0-2-0-2-0-2--5-7-------0-2-0-2-0-2-0-2--0-1------ repeat 4 times

------------------------------------------------------
------------------------------------------------------
------------------------------------------------------
-0-2-0-2-0-2-0-2--5-7-------0-2-0-2-0-2-0-2--0-1------
-0-2-0-2-0-2-0-2--5-7-------0-2-0-2-0-2-0-2--0-1------
-0-2-0-2-0-2-0-2--5-7-------0-2-0-2-0-2-0-2--0-1------ repeat 4 times

--------------------------------------------------
--------------------------------------------------
-------------0-2-0--------------------------------
----2-2-2-2--------------2-2-2-2--0-1-------------
--------------------------------------------------
------------------------------------------- repeat once 
[ Tab from: http://www.guitartabs.cc/tabs/l/limp_bizkit/mission_impossible_2_theme_tab_ver_3.html ]
---15-12--------15-12--------15-12--------15-12-----------------
----------12-----------11----------10-----------13-13-12--------
----------------------------------------------------------------
----------------------------------------------------------------
----------------------------------------------------------------
---------------------------------------------------repeat 4 times

------------------------------------------------------
------------------------------------------------------
------------------------------------------------------
------------------------------------------------------
------------------------------------------------------
-0-2-0-2-0-2-0-2--5-7-------0-2-0-2-0-2-0-2--0-1------ repeat 4 times

------------------------------------------------------
------------------------------------------------------
------------------------------------------------------
-0-2-0-2-0-2-0-2--5-7-------0-2-0-2-0-2-0-2--0-1------
-0-2-0-2-0-2-0-2--5-7-------0-2-0-2-0-2-0-2--0-1------
-0-2-0-2-0-2-0-2--5-7-------0-2-0-2-0-2-0-2--0-1------ repeat 4 times

------------------------------------------------
------------------------------------------------
------------------------------------------------
--2-2-5-7----2-2-0-1----2-2-5-7----2-2-0-1------
--2-2-5-7----2-2-0-1----2-2-5-7----2-2-0-1------
--2-2-5-7----2-2-0-1----2-2-5-7----2-2-0-1------

Before this part you need to listen to the song b/c the guitar doesn\'t
play for a while
------------------------------------------------
------------------------------------------------
------------------------------------------------
------------------------------------------------
------------------------------------------------
--2-2-5-7----2-2-0-1----2-2-5-7----2-2-0-1------ repeat twice


------------------------------------------------------
------------------------------------------------------
------------------------------------------------------
-0-2-0-2-0-2-0-2--5-7-------0-2-0-2-0-2-0-2--0-1------
-0-2-0-2-0-2-0-2--5-7-------0-2-0-2-0-2-0-2--0-1------
-0-2-0-2-0-2-0-2--5-7-------0-2-0-2-0-2-0-2--0-1------repeat twice

---15-12--------15-12--------15-12--------15-12-----------------
----------12-----------11----------10-----------13-13-12--------
----------------------------------------------------------------
----------------------------------------------------------------
----------------------------------------------------------------
-----------------------------------repeat 6 times as song fades out

Comments