Limp Bizkit - Livin It Up Chords & Tabs

 

Livin It Up Chords & Tabs

Limp Bizkit Chords & Tabs

Version: 3 Type: Tab 0 ratings
1 star 2 stars 3 stars 4 stars 5 stars
comments

Livin It Up Tab

   
-------------------------------------------------------------------------------
			    Livin It Up - LIMP BIZKIT
-------------------------------------------------------------------------------
Tabbed by:Lirikal
Email:

Tuning:DbAbDbGbBbeb

VERSE:

     (wh./delay)

eb|--------7--10--7h10------------7--10--7h10--8-------------------------------|
Bb|----------------------------------------------------------------------------|
Gb|-----9----------------------9-----------------------------------------------|
Db|----------------------------------------------------------------------------|
Ab|--7----------------------7--------------------------------------------------|
Db|----------------------------------------------------------------------------|

CHORUS:

eb|----------------------------------------------------------------------------|
Bb|----------------------------------------------------------------------------|
Gb|----------------------------------------------------------------------------|
Db|-2-2--0h2p0--2-2--0h2p0-----------------------------------------------------|
Ab|-2-2--0h2p0--2-2--0h2p0-----------------------------------------------------|
Db|-2-2--0h2p0--2-2--0h2p0-----------------------------------------------------|

BRIDGE:
[ Tab from: http://www.guitartabs.cc/tabs/l/limp_bizkit/livin_it_up_tab_ver_3.html ]
eb|----------------------------------------------------------------------------|
Bb|----------------------------------------------------------------------------|
Gb|----------------------------------------------------------------------------|
Db|--2-2-2-2-2-2-2-7-7-7-7-5-5-5-5---------------------------------------------|
Ab|--2-2-2-2-2-2-2-7-7-7-7-5-5-5-5---------------------------------------------|
Db|--2-2-2-2-2-2-2-7-7-7-7-5-5-5-5---------------------------------------------|

     PM------                                                       (last time)
eb|------------|-----------------------|--------------------------|------------|
Bb|------------|-----------------------|--------------------------|------------|
Gb|*----------*|-----------------------|*------------------------*|------------|
Db|*-2-2-2--2-*|--2-2-2-X-X-X-X-0h2--2-|*-0h2-2-2-X-X-X-X-0h2--2-*|-0h2--------|
Ab|--2-2-2--2--|--2-2-2-X-X-X-X-0h2--2-|--0h2-2-2-X-X-X-X-0h2--2--|-0h2--------|
Db|--2-2-2--2--|--2-2-2-X-X-X-X-0h2--2-|--0h2-2-2-X-X-X-X-0h2--2--|-0h2--------|

eb|----------------------------------------------------------------------------|
Bb|----------------------------------------------------------------------------|
Gb|----------------------------------------------------------------------------|
Db|--2-2-2-2-2-2-2-7-7-7-7-5-5-5-5---------------------------------------------|
Ab|--2-2-2-2-2-2-2-7-7-7-7-5-5-5-5---------------------------------------------|
Db|--2-2-2-2-2-2-2-7-7-7-7-5-5-5-5---------------------------------------------|

| /    slide up
| \    slide down
| h    hammer-on
| p    pull-off
| ~    vibrato
| +    harmonic
| x    Mute note
| PM Palm Mute

Enjoy It!!
===============================================================================
Comments