Limp Bizkit - Livin It Up Chords & Tabs

 

Livin It Up Chords & Tabs

Limp Bizkit Chords & Tabs

Version: 2 Type: Tab 0 ratings
1 star 2 stars 3 stars 4 stars 5 stars
comments

Livin It Up Tab

   
Livin’ It Up-Limp Bizkit
Chocolate Starfish And The Hotdog Flavored Water

C# F# B E G# C#

Intro:
“Life in the fast lane”

Riff A:

e-----------------------------------------------------------------
b-------14----17--14-17-----------14----17--14-17-15--------------
g-----------------------------------------------------------------
d----16----16------------------16----16---------------------------
a-----------------------------------------------------------------
e-14------------------------14------------------------------------

Verses: Riff A x12

Chorus: Fig 1.

e-----------------------------------------------------------------
b-----------------------------------------------------------------
g-----------------------------------------------------------------
d-4--4-----------4--4-----------4--4-----------4--4--5-4-4--------
a-4--4-----------4--4-----------4--4-----------4--4--5-4-4--------
e-2--2----0-2-0--2--2----0-2-0--2--2----0-2-0--2--2--3-2-2-0------

Bridge:

Fig 2.
[ Tab from: http://www.guitartabs.cc/tabs/l/limp_bizkit/livin_it_up_tab_ver_2.html ]
e-----------------------------------------------------------------
b-7--7-7-7--7-7-7-7--7--7--7-7-8-7--7--7--7-71010-10-1010-10------
g-x--x-x-x--x-x-x-x--x--x--x-x-x-x--x--x--x-x-x-x--x--x-x--x------
d-4--4-4-4--4-4-4-4--4--4--4-4-5-4--4--4--4-4-7-7--7--7-7--7------
a-----------------------------------------------------------------
e-----------------------------------------------------------------

Fig 2a.

e-----------------------------------------------------------------
b-----------------------------------------------------------------
g-----------------------------------------------------------------
d-4--4-4-4--4-4-4-4--4--4--4-4-9--9-9-9--9-9-7-7--7--7--7-7-------
a-4--4-4-4--4-4-4-4--4--4--4-4-9--9-9-9--9-9-7-7--7--7--7-7-------
e-2--2-2-2--2-2-2-2--2--2--2-2-7--7-7-7--7-7-5-5--5--5--5-5-------

Interlude: Fig 3. w/ p.m.

e-----------------------------------------------------------------
b-----------------------------------------------------------------
g-----------------------------------------------------------------
d-----------------------------------------------------------------
a-----------------------------------------------------------------
e-0-2-2--2----x-0-2-2--2----x-0-2-2--2----x-0-2-2--2--------------

...microphone, plug it in my soul...

e-----------------------------------------------------------------
b-----------------------------------------------------------------
g-----------------------------------------------------------------
d---4--4--4--x-x-x----4--4--4----4--4--4--x-x-x----4--4--4--------
a---4--4--4--x-x-x----4--4--4----4--4--4--x-x-x----4--4--4--------
e-0-2--2--2--x-x-x--0-2--2--2--0-2--2--2--x-x-x--0-2--2--2--------

that’s it

trevor jones
timmy91199@yahoo.ca
Comments