Limp Bizkit - Livin It Up Chords & Tabs

 

Livin It Up Chords & Tabs

Limp Bizkit Chords & Tabs

Version: 1 Type: Tab 0 ratings
1 star 2 stars 3 stars 4 stars 5 stars
comments

Livin It Up Tab

Limp Bizkit, Livin' it up.
Tabbed by Ali King, Stephen@largehouse.co.uk.
 
Limp bizkit, Livin' it up
This is track 7 from choc Starfish
Tuning is drop B 

Verse riff  (lots of reverb and delay - clean)
C#----------------------------------------------------
G#-------14----17-14-17-14-------14--17-14-17-15^^^^--
E ---11----------------------11-----------------------
B ----------------------------------------------------
F#----------------------------------------------------
B ----------------------------------------------------

Pre chorus "i'm just a crazy motha fucka" (lots dist.)

C#----------------------------------------------------
G#----------------------------------------------------
E ----------------------------------------------------
B ---4--4-4---0--2--0------4--4---5--5-5--------------
F#---4--4-4---0--2--0-X3---4--4---5--5-5--------------
B ---4--4-4---0--2--0------4--4---5--5-5--------------

then the bass fill and the second verse
then the pre-chorus 

then the chorus. (dist) 
      play as power chords
C#----------------------------------------------------
G#----------------------------------------------------
E ----------------------------------------------------
B ----------------------------------------------------
F#-9-9-9-9-9-9-9---7-7-7-7-7-5-7--9-9-9-9-9-9 etc
B ----------------------------------------------------
"cos   it's  so  easy  to tell a lie" etc
[ Tab from: http://www.guitartabs.cc/tabs/l/limp_bizkit/livin_it_up_tab.html ]
interlude  (dist.  all pm)
C#----------------------------------------------------
G#----------------------------------------------------
E ----------------------------------------------------
B -------2-------2---2---2----------------------------
F#-------2-------2---2---2----------------------------
B -------2-------2---2---2----------------------------
 "this world is like a cage" 

C#----------------------------------------------------
G#----------------------------------------------------
E ----------------------------------------------------
B -------2---------2-----2---2------------------------
F#-------2---------2-----2---2------------------------
B -------2---------2-----2---2------------------------
    "and I don't think it's fair"             etc...

Repeat this rythum all through the inter lude

then stop when Fred shouts "but we gotta get it out with the motha fucking...."

then play this with full dist. 
   
C#----------------------------------------------------
G#----------------------------------------------------
E ----------------------------------------------------
B --2----4------x-x-x--x---2--4--2-2-4----------------
F#--2----4------x-x-x--x---2--4--2-2-4----------------
B --2----4------x-x-x--x---2--4--2-2-4----------------
  "microphone,  I'm rockin in my zone"
(this is quite a funny rythum but just listen to the CD and you'll get it.)

Pause when Fred says "I'm livin' life in the fast lane" and then play the choras followed by the pre-choras riff untill the end of the song
______________________________________________________
 I think this is pretty acurate but if you have any corrections just mail me.  If you want any other Limp bizkit tab just mail me, esspecialy if you want significant other tabs because I have tabbed that entire album to 100% accuracy I promise.

Stephen@largehouse.freeserve.co.uk



:: Ultimate Guitar Archive :: 
http://www.ultimate-guitar.com
Comments