Limp Bizkit - Livin It Up Chords & Tabs

 

Livin It Up Chords & Tabs

Limp Bizkit Chords & Tabs

Version: 1 Type: Bass Tab 0 ratings
1 star 2 stars 3 stars 4 stars 5 stars
comments

Livin It Up Bass Tab

Artist: Limp Bizkit
Song: Livin' It Up
Album: chocolate starfish and the hot dog flavored water

A tab by Tic Tac
@ = tic_tac_84@hotmail.com

Comments:
After playing the Vers, Rest while West play
and then Start on the Chorus!


Do fell free to upgrade this tab

________________________________________


Vers:
G |------------------------------------------------
D |-------------12h13p12--------------12h14p12-----
A |--14--12------------------14--12----------------
E |------------------------------------------------  (x10)
On the fifth time end on  ---14--12-- then start over


Chorus:
G |---------------------------------
D |---------------------------------
A |--------7h8-8\7---------7h9-9\7---
E |--5-5-------------5-5------------  (x8)

Vers      (x8)
On the fourth time end on  ---14--12-- then start over
Chorus   (x8)
[ Tab from: http://www.guitartabs.cc/tabs/l/limp_bizkit/livin_it_up_btab.html ]
Interlude #1
G |----------------------------------------------------
D |----------------------------------------------------
A |---9-9-9-9-9-9-9--101010101010101010101010----------
E |--7-7-7-7-7-7-7-------------------------------------   (x4)

Interlude #2
G |----------------------
D |----------------------
A |--3-3-2---3-3-0-------
E |----------------------  (x8)

Interlude #3
G |---------------------------------------------------
D |---------------------------------------------------
A |--555--4--0--3--4‰-----555--5--3--4--5-------------
E |----------------------------------------------------   (x6)


Interlude #1     (x4)
Chorus             (x8)

_____________________________

Symbols:

2:     let the note ring
~2    Vibrate the note
‰3    Vibrate the note up and down
2/~  Vibrate the note when pulling it up or down
\/    Pull it up or down
3h4  Hammer on from note 3 too 4
5p4  Pull off from note 5 too 4
s      Slap Note
p      Pop note

Comments