Limp Bizkit - Just Like This Chords & Tabs

 

Just Like This Chords & Tabs

Limp Bizkit Chords & Tabs

Version: 3 Type: Tab 0 ratings
1 star 2 stars 3 stars 4 stars 5 stars
comments

Just Like This Tab

Tabbed By: Chris DeJoseph       cdj89@delanet.com

Artist: Limp Bizkit
Song: Just like This
Album: Significant Other


E--------------------------------------------------
B--------------------------------------------------  intro i think
played 2x
G--------------------------------------------------     
D--------------------------------------------------   play this once   

A---3----------------------3--------3-3-3-3-4-4-4-4   before chorus
D----0-2-0-0-2-0-0-0-2-0-0--0-2-0-0-3-3-3-3-4-4-4-4
[ Tab from: http://www.guitartabs.cc/tabs/l/limp_bizkit/just_like_this_tab_ver_3.html ]
chorus
E--------------------------------------------------
B--------------------------------------------------
G--------------------------------------------------
D---5----------------------5-----------------------
A---30-2-0-0-2-0-0-0-2-0-0-30-2-0-0-3-3-3-3-4-4-4-4
D----0-2-0-0-2-0-0-0-2-0-0--0-2-0-0-3-3-3-3-4-4-4-4

Verse
E-------------------------------------------------- repeat a few times 
B-------------------------------------------------- during the verses
G--------------------------------------------------
D--------------------------------------------------
A---3---7h8p7-7------------------------------------
D----0---------------------------------------------

end with this:
E--------------------------------------------------
B--------------------------------------------------
G--------------------------------------------------
D--------------------------------------------------
A-3--------3--------3---------3-4-5----------------
D--0-2-0-0--0-2-0-0---0-2-0-0----------------------
Comments