Limp Bizkit - Just Like This Chords & Tabs

 

Just Like This Chords & Tabs

Limp Bizkit Chords & Tabs

Version: 1 Type: Tab 0 ratings
1 star 2 stars 3 stars 4 stars 5 stars
comments

Just Like This Tab

		 	       "JUST LIKE THIS"
                                     by
				 Limp Bizkit

INTRO
x|-----------------------------|
x|-----------------------------|
x|-----------------------------|
x|-----------------------------|
x|-5-----------------5---------|
x|---6-4-6-4-6-4-6-4---6-4-6-7-|

VERSE 1 (this is at the end of the verse)
x|----------|
x|----------|
x|----------|
x|-2--4bend-|
x|----------|
x|----------|
[ Tab from: http://www.guitartabs.cc/tabs/l/limp_bizkit/just_like_this_tab.html ]
CHORES
x|----------------------------------|
x|----------------------------------|
x|----------------------------------|
x|----------------------------------|
x|-10-6-4-6-4-6-4-6-4--10-6-4-6-4-7-|
x|-10-6-4-6-4-6-4-6-4--10-6-4-6-4-7-|

VERSE 2 (this is at the end of the verse)
x|----------|
x|----------|
x|----------|
x|-4--6bend-|
x|----------|
x|----------|

INTERLUDE - you just go on the top string and go down a fret each time you change. listen to the CD to hear the guitar in the back ground.
Comments