Limp Bizkit - Just Like This Chords & Tabs

 

Just Like This Chords & Tabs

Limp Bizkit Chords & Tabs

Version: 2 Type: Bass Tab 0 ratings
1 star 2 stars 3 stars 4 stars 5 stars
comments

Just Like This Bass Tab

   
Song: Just Like This
Artist: Limp Bizkit
Album: Significant Other
Tabbed By: Mark Valencia

This song was a little tricky trying to find the
changes, but i managed to find them, so have fun
playin it, PEACE!!!

(B,E,A,D,G,) standard tuning for 5-string

Main Riff of Song:
[ Tab from: http://www.guitartabs.cc/tabs/l/limp_bizkit/just_like_this_btab_ver_2.html ]
G||-------------------------------------------------||
D||-------------------------------------------------||
A||-4-------------------4---------------------------||
E||-------------------------------------------------||
B||---2-3_2_0_2_3_2_2_3|--2--3-2-2-5-5-5-5-6-6-6-6--||

Part Where Fred starts Rappin:

G||-------------------------------||
D||-------------------------------||
A||-4-----------------------------||
E||-------------------------------||
B||---2--3-2-2--5_5_5_5-6_6_6_6---||

These are the main parts of the song, these are the
only changes through the whole song, but at the end,
before it ends, the last riff is this.

G||----------------------||
D||----------------------||
A||--4-----------4-5-6---||
E||----------------------||
B||----2--3--2-0---------||
Comments