Limp Bizkit - Just Drop Dead Chords & Tabs

 

Just Drop Dead Chords & Tabs

Limp Bizkit Chords & Tabs

Version: 2 Type: Tab 0 ratings
1 star 2 stars 3 stars 4 stars 5 stars
comments

Just Drop Dead Tab

Artist: Limp Bizkit
Song: Just Drop Dead
Tuning: Drop C

This song is too easy..
Intro/Prechorus
D|---------------------------------------------------------------------------|
A|---------------------------------------------------------------------------|
F|---------------------------------------------------------------------------|
C|-1-1-0h1-1-0h1-1-0h1-1-2-2-2-2---------------------------------------------|
G|-1-1-0h1-1-0h1-1-0h1-1-2-2-2-2---------------------------------------------|
C|-1-1-0h1-1-0h1-1-0h1-1-2-2-2-2---------------------------------------------|

Chorus
D|---------------------------------------------------------------------------|
A|---------------------------------------------------------------------------|
F|---------------------------------------------------------------------------|
C|-4-4-4-4-4-4-4-4-4-4-4-4-4-4-4-4--3-3-3-3-3-3-3-3-3-3-3-3-3-3-3-3----------|
G|-4-4-4-4-4-4-4-4-4-4-4-4-4-4-4-4--3-3-3-3-3-3-3-3-3-3-3-3-3-3-3-3----------|
C|-4-4-4-4-4-4-4-4-4-4-4-4-4-4-4-4--3-3-3-3-3-3-3-3-3-3-3-3-3-3-3-3----------|

Bridge #1
D|---------------------------------------------------------------------------|
A|---------------------------------------------------------------------------|
F|---------------------------------------------------------------------------|
C|-11h10-11h10-11h10-11-11-11-11-11-11---------------------------------------|
G|-11h10-11h10-11h10-11-11-11-11-11-11---------------------------------------|
C|-11h10-11h10-11h10-11-11-11-11-11-11---------------------------------------|
[ Tab from: http://www.guitartabs.cc/tabs/l/limp_bizkit/just_drop_dead_tab_ver_2.html ]
D|---------------------------------------------------------------------------|
A|---------------------------------------------------------------------------|
F|---------------------------------------------------------------------------|
C|-11h10-11-11-11-11-11-11---------------------------------------------------|
G|-11h10-11-11-11-11-11-11---------------------------------------------------|
C|-11h10-11-11-11-11-11-11---------------------------------------------------|

Bridge #2
D|---------------------------------------------------------------------------|
A|---------------------------------------------------------------------------|
F|---------------------------------------------------------------------------|
C|-4h3-4h3-4h3-4-4-4-4-4-4---------------------------------------------------|
G|-4h3-4h3-4h3-4-4-4-4-4-4---------------------------------------------------|
C|-4h3-4h3-4h3-4-4-4-4-4-4---------------------------------------------------|

D|---------------------------------------------------------------------------|
A|---------------------------------------------------------------------------|
F|---------------------------------------------------------------------------|
C|-4h3-3-4-------------------------------------------------------------------|
G|-4h3-3-4-------------------------------------------------------------------|
C|-4h3-3-4-------------------------------------------------------------------|

D|---------------------------------------------------------------------------|
A|---------------------------------------------------------------------------|
F|---------------------------------------------------------------------------|
C|-4h3-3-4-4-4-4-4-4---------------------------------------------------------|
G|-4h3-3-4-4-4-4-4-4---------------------------------------------------------|
C|-4h3-3-4-4-4-4-4-4---------------------------------------------------------|

the strumming might be wrong be u can figure taht out urself


t(-_-t)
Comments