Limp Bizkit - Itll Be Ok Chords & Tabs

 

Itll Be Ok Chords & Tabs

Limp Bizkit Chords & Tabs

Version: 5 Type: Tab 0 ratings
1 star 2 stars 3 stars 4 stars 5 stars
comments

Itll Be Ok Tab

It' ll Be O.K  Limp Bizkit
                             

Tabbed using www.GuitarAndBass.co.uk Transcription Tools v1.12
--------------------------------------------------------------
                                                                   
C#||-------------------------------|------------------------------|
G#||-------------------------------|------------------------------|
E ||*------------------------------|-----2---2--2-2-5--5-5-5h4-4--|
B ||*---------3-------------3------|------------------------------|
F#||------7-------7-----7-------7--|------------------------------|
C#||---0----0---0----0----0---0----|--3----3----------------------|


                                                              4x
------------------------------|-------------------------------||
------------------------------|-------------------------------||
------------------------------|-----2---2--2-2-5--5-5-5h4-4--*||
---------3-------------3------|------------------------------*||
-----7-------7-----7-------7--|-------------------------------||
--0----0---0----0----0---0----|--3----3-----------------------||


                                                      
--------------------------|--------------------------|
----3--6b-3-6b--3--6b-3-6b|----6--9b-6-9b--6--9b-6-9b|
--------------------------|--------------------------|
--------------------------|--------------------------|
--------------------------|--------------------------|
--------------------------|--------------------------|


                                                  
--------------------------|----------------------|
----3--6b-3-6b--3--6b-3-6b|----6--9b-6-9b--------|
--------------------------|----------------------|
--------------------------|----------------------|
--------------------------|----------------------|
--------------------------|----------------------|


                             3x                           
|----------------------------||--------------------------|
|----------------------------||--------------------------|
|*--------------------------*||--------------------------|
|*--------------------------*||--------------------------|
|---0--0---5h3---0--0---1----||--0--0---5h3---0----x-1---|
|---0--0-------3-0--0---1----||--0--0-------5-0----x-1---|


                             8x                  
|----------------------------||-----------------|
|----------------------------||-----------------|
|*--------------------------*||-----------------|
|*--------------------------*||-----------------|
|---0--0---5h3---0--0---1----||---1----1----1---|
|---0--0-------5-0--0---1----||---1----1----1---|


                                          
|----------------------------------------|
|----------------------------------------|
|*--------11----11-12h11---12h11------11-|
|*--0---0-----0----------0-------0-10----|
|----------------------------------------|
|----------------------------------------|

[ Tab from: http://www.guitartabs.cc/tabs/l/limp_bizkit/itll_be_ok_tab_ver_5.html ]
                                                 
------------------------------------17----20-17-|
------------------------------20-------20-------|
------------17----16-17-19-16----19-------------|
------19-------19-------------------------------|
------------------------------------------------|
--15-----15-------------------------------------|


                                        
---------------------------------------|
---------------------------------------|
--------11----11-12h11---12h11------11-|
--0---0-----0----------0-------0-------|
---------------------------------12----|
---------------------------------------|


                                                   
------------------------------------17----20-17--||
------------------------------20-------20--------||
------------17----16-17-19-16----19-------------*||
------19-------19-------------------------------*||
-------------------------------------------------||
--15-----15--------------------------------------||


                                         
----------------------------------------|
----------------------------------------|
*--------11----11-12h11---12h11------11-|
*--0---0-----0----------0-------0-------|
----------------------------------12----|
----------------------------------------|

Tabbed using www.GuitarAndBass.co.uk Transcription Tools v1.12
--------------------------------------------------------------
                                                 
------------------------------------17----20-17-|
------------------------------20-------20-------|
------------17----16-17-19-16----19-------------|
------19-------19-------------------------------|
------------------------------------------------|
--15-----15-------------------------------------|


                                        
---------------------------------------|
---------------------------------------|
--------11----11-12h11---12h11------11-|
--0---0-----0----------0-------0-------|
---------------------------------12----|
---------------------------------------|


                                                   
------------------------------------17----20-17--||
------------------------------20-------20--------||
------------17----16-17-19-16----19-------------*||
------19-------19-------------------------------*||
-------------------------------------------------||
--15-----15--------------------------------------||


                             
----------------------------|
----------------------------|
*---------------------------|
*---------------------------|
---------9------------9-----|
---0---0----0-0--0-0-----0--|


                                           
------------------------------------------|
--10--10--10--10/13-13-12-12-12-12-12-12--|
------------------------------------------|
--7---7---7---7/-10-10-9--9--9--9--9--9---|
------------------------------------------|
------------------------------------------|


                             
----------------------------|
----------------------------|
----------------------------|
----0-----------------------|
----0----9------------9-----|
--0----0----0-0--0-0-----0--|


                                             
-------------------------------------------||
--10--10--10--10/13-13-12-12-12-12-12-12---||
------------------------------------------*||
--7---7---7---7/-10-10-9--9--9--9--9--9---*||
-------------------------------------------||
-------------------------------------------||

Tabbed using www.GuitarAndBass.co.uk Transcription Tools v1.12
--------------------------------------------------------------
Comments