Limp Bizkit - Itll Be Ok Chords & Tabs

 

Itll Be Ok Chords & Tabs

Limp Bizkit Chords & Tabs

Version: 4 Type: Tab 0 ratings
1 star 2 stars 3 stars 4 stars 5 stars
comments

Itll Be Ok Tab

*Author : LimpBizkit
Song : It'll be Ok
By : Josh Borlos
Album : Chocolate Star Fish

I tabbed it out, and it sounds nice. This isnt 100% correct, but I give the basic idea.

Tuning ( from high to low ) C#  G#  E  B  F#  C#

This is the intro, and some verses
C#-----------------------------------------------------------|
G#-----------------------------------------------------------|
E----------------------------------4-4-4----7-7-7-7-6-6------|
B------4--5--4------4--5--4----------------------------------|
F#-----------------------------------------------------------|
C#--0------------0------------3-3----------------------------|

This is the next verse after the Intro
C#-----------------------------------------------------------|
G#----------------------------8--11^--8----8--11^--8---------|
E---9--12^--9----9--12^--9-----------------------------------|
B------------------------------------------------------------|
F#-----------------------------------------------------------|
C#-----------------------------------------------------------|

This is the other verse played
C#------------------------------------------------8----------|
G#----------------------------8--11^--8----8--11-------------|
E---9--12^--9----9--12^--9-----------------------------------|
B------------------------------------------------------------|
F#-----------------------------------------------------------|
C#-----------------------------------------------------------|
[ Tab from: http://www.guitartabs.cc/tabs/l/limp_bizkit/itll_be_ok_tab_ver_4.html ]
This is the Chorus the first part of the Chorus
C#-----------------------------------------------------------|
G#-----------------------------------------------------------|
E------------------------------------------------------------|
B----------2--0----------------------------------------------|
F#--2--2---------2-------------------------------------------|
C#--0--0-------------0---0-----1---1-------------------------|

And this is the second part
C#-----------------------------------------------------------|
G#-----------------------------------------------------------|
E----------9--7----------------------------------------------|
B---2--2---9--7--9----2--2--2---3---3------------------------|
F#--2--2---7--5--9----2--2--2---3---3------------------------|
C#--0--0---------7----0--0--0---1---1------------------------|

Heres the ending for the second chorus ( not the second part, but the second one in the song )
C#-----------------------------------------------------------|
G#-----------------------------------------------------------|
E---------9--7-----------------------------------------------|
B---2--2--9--7--9----2--2----3--2--3--2--3--2--3-------------|
F#--2--2--7--5--9----2--2----3--2--3--2--3--2--3-------------|
C#--0--0--------7----0--0----1--0--1--0--1--0--1-------------|
    

I would'nt say thats basicly the whole song. The ending Im still trying to figure out and the outro chorus.
But, these are the basics parts of the song, get the effects right and this will sound great!
Any questions @ veritasx666@hotmail.com


GEAR USED

- B.C Rich - Virgin Platinum - Satin Black

- Crate Ampliphier - Taxi

- Yamaha 50 in 1 pedal

- Yamaha Strings - Super Light
Comments