Limp Bizkit - Itll Be Ok Chords & Tabs

 

Itll Be Ok Chords & Tabs

Limp Bizkit Chords & Tabs

Version: 2 Type: Bass Tab 0 ratings
1 star 2 stars 3 stars 4 stars 5 stars
comments

Itll Be Ok Bass Tab

Artist: Limp Bizkit
Song: It'll Be Okay
Album: chocolate starfish and the hot dog flavored water

A tab by Tic Tac
@ = tic_tac_84@hotmail.com

Comments:
No Cemment!


Do fell free to upgrade this tab

________________________________________

Intro
G |----------------------
D |-------9-9------------
A |--9-9------11-11-11---
E |----------------------  (x4)

Vers     (x2)
G |---------------------------------
D |------10-10--------------10h12---
A |--9-9--------11-11-11------------
E |---------------------------------

G |-----------------------------------
D |------10-10-------------1212-------
A |--9-9--------11-11-11--------12\9--
E |-----------------------------------


Fill in  #1
G |--------------------------------------
D |--------------------------------------
A |--22222-2--99999-9--77777-7--99999-9--
E |--------------------------------------  (x2)

Vers             (x2)
Fill in  #1   (x4)

Pre-Chorus
G |--------------------
D |--------------------
A |--22---22---22--22--
E |--------------------  (x1)
[ Tab from: http://www.guitartabs.cc/tabs/l/limp_bizkit/itll_be_ok_btab_ver_2.html ]
Chorus
G |-------------------------------------------------
D |------3h5-5-4-----------------3h5-5-4------------
A |--22-----------5-4-3h4---22------------4-5p3-3---
E |-------------------------------------------------  (x4)

End-Chorus
G |-------
D |-------
A |--2p0--
E |-------   (x1)


Vers              (x2)
Fill in  #1    (x3)
Pre-Chorus  (x1)
Chorus          (x4)
End-Chorus  (x4)


Fill in  #2
G |-----------------------------------------------
D |-------11:--------------11:---------------------
A |--9:---------10:----9:---------10:--------12-----
E |-----------------------------------------------  (x4)


Interlude
G |---------------------------------
D |---------------------------------
A |--3h5-4-----5-------999999999----
E |--------5-4---3-44---------------   (x4)


Pre-Chorus    (x1)
Chorus            (x4)
End-Chorus    (x4)
Fill in  #2      (x4)   Play it, 2 it Fades


_____________________________

Symbols:

2:     let the note ring
~2    vibrate the note
3    vibrate the note up and down
2/~  vibrate the note when pulling it up or down
\/     pull it up or down
3h4  hammer on from note 3 too 4
5p4  pull off from note 5 too 4
s       Slap Note
p      pop note
Comments