Limp Bizkit - It Will Be Ok Chords & Tabs

 

It Will Be Ok Chords & Tabs

Limp Bizkit Chords & Tabs

Version: 1 Type: Tab 0 ratings
1 star 2 stars 3 stars 4 stars 5 stars
comments

It Will Be Ok Tab

   
It'll Be Ok
Tabbed By Ian S.B
Binkies92@hotmail.com

C# F# B E G# C#

Intro: w/ delay

Fig 1.
e-----------------------------------------------------------------
b--------------------------------3--3-3-3p2--2--------------------
g-----0-------0-------4---4--4-4----------------------------------
d---4---4---4---4-------------------------------------------------
a-----------------------------------------------------------------
e-0-------0--------3----3-----------------------------------------

Verse: Fig 1. x4

Riff A

e-----------------------------------------------------------------
b-----8b-------8b----------11b----------11b-----------------------
g---9----9---9----9-----12-----12----12-----12--------------------
d-----------------------------------------------------------------
a-7--------7---------10-----------10------------------------------
e-----------------------------------------------------------------
[ Tab from: http://www.guitartabs.cc/tabs/l/limp_bizkit/it_will_be_ok_tab.html ]
e-----------------------------------------------------------------
b-----8b-------8b----------11b----------11b--13p11----------------
g---9----9---9----9-----12-----12----12---------------------------
d-----------------------------------------------------------------
a-7--------7---------10-----------10------------------------------
e-----------------------------------------------------------------

Pre Chorus: Fig 2.

e-----------------------------------------------------------------
b-----------------------------------------------------------------
g-----------------------------------------------------------------
d-2--2----2-0----------------2--2----2-0--------------------------
a-2--2----------2--2--x-3--x-2--2----------2--2--x-3--x-----------
e-0--0--------3-0--0--x-1--x-0--0--------3-0--0--x-1--x-----------

Chorus: Fig 2.

Interlude:
Riff B
e------------------------------------------------17--19--22p19----
b------------------------------------15--14--17-------------------
g----13----14p13----13-----------16-------------------------------
d-----------------------------------------------------------------
a-----------------------------------------------------------------
e-12----12-------12----12-12-15-----------------------------------

Bridge: Riff B

Riff C

e-----------------------------------------------------------------
b-----------------------------------------------------------------
g-------13------------13-------16---16--16-19---18-18--18--18-----
d-----------------------------------------------------------------
a-------11------------11-------14---14--14-17---16-16--16--16-----
e-0---0-----0-0---0-0-----0-0-------------------------------------

Outro: Fig 1.

that’s all

Comments