Limp Bizkit - Indigo Flow Chords & Tabs

 

Indigo Flow Chords & Tabs

Limp Bizkit Chords & Tabs

Version: 1 Type: Bass Tab 0 ratings
1 star 2 stars 3 stars 4 stars 5 stars
comments

Indigo Flow Bass Tab

   
Indigo Flow by Limp Bizkit
Off of Three Dollar Bill, Y'All
Bass Tab

Rhythmic count is notated under the staff for some riffs

Detuned 5-String bass arranged for 4-String bass 
Tune all strings down 1 +1/2 steps (Low to high C# F# B E)

Transcribed by Todd Baldwin (Tbone512@aol.com)
BPM = 106 

Intro Silent, then

verse 1 and 2                   
                                                   Play 16x
E----------------------------------------------------|
B--o-----------------------------10----------------o-|
F#-o-----------------------------------------------o-|
C#---0---------------8-------------------------------|

     1    &     2    &     3     &     4     &     (count)			
	
Interlude 1   
[ Tab from: http://www.guitartabs.cc/tabs/l/limp_bizkit/indigo_flow_btab.html ]
Sustain for 4 measures     let ring               play 2x 
E--------------------| |-------------------|--------------|
B--------------------| |-o-------14--------|------------o-|
F#-------------------| |-o----14-----------|------------o-|
C#-0-----------------| |---12--------------|--------------|

Back to verse (8x only), 

then interlude 2:
Sustain for 8 measures                                  
E----------------------|
B----------------------|
F#---------------------|
C#-0-------------------|

Outro 

E-------------------------------------|	
B--o----------------------------------|	
F#-o---2-----2s3----------------------| 	
C#---0---0-0-----0-3-0-3-0-0-3-0-0-2--|

     1 e + a 2 e + a 3 e + a 4 e + a
E-------------------------------------|	
B-----------------------------------o-| play 8x
F#-----2-----2s3--------------------o-| 	
C#---0---0-0-----0-3-0-3-0-0-3-0-2----|

Send questions, comments to Tbone512@aol.com, and if you want more insight on 
how to play any other Limp Bizkit tunes, just mail me.
						   

	

Comments