Limp Bizkit - Im Broke Chords & Tabs

 

Im Broke Chords & Tabs

Limp Bizkit Chords & Tabs

Version: 1 Type: Tab 0 ratings
1 star 2 stars 3 stars 4 stars 5 stars
comments

Im Broke Tab

Limp Bizkit
   I'm Broke
   Tabbed by : xLBxNookie@aol.com


   Intro

   C#|------------------------|
   C#|------------------------|
   G#|o----------------------o|
   E |--3*--3*--3-3*--3*--3*--|
   B |o-2*--2*--2-2*--2*--2*-o|
   F#|--1*--1*--1-1*--1*--1*--|
   C#|--0*--0*--0-0*--0*--0*--|


   Chorus

   C#|-0--/0---0---0--0------0--/0--0---0---0---0--|
   C#|-6--/7--10---9--8------6--/7--0---0---0---0--|
   G#|------------------------------9--15--14--13--|
   E |-3--/4---7---6--5------3--/4-----------------|
   B |------------------------------6--12--11--10--|
   F#|---------------------------------------------|
   C#|---------------------------------------------|


   Breakdown/Outro
[ Tab from: http://www.guitartabs.cc/tabs/l/limp_bizkit/im_broke_tab.html ]
   C#|---------------------------------|
   C#|---------------------------------|
   G#|---------------------------------|
   E |---------------------------------|
   B |---------------------------------|
   F#|--8\3-------------8\3------------|
   C#|------0-0*-0-0--------0-0*-0-0---|


   C#|-------------0----------------------------0-----------------|
   C#|-------------6----------------------------6-----------------|
   G#|------------------------------------------------------------|
   E |-------------3----------------------------3-----------------|
   B |------------------------------------------------------------|
   F#|--8\3-------------8\3------------8\3----------8\3-----------|
   C#|--------0-------------0-0*-0-0---------0----------0-0*-0-0--|
Comments