Limp Bizkit - Hot Dog Chords & Tabs

 

Hot Dog Chords & Tabs

Limp Bizkit Chords & Tabs

Version: 1 Type: Tab 0 ratings
1 star 2 stars 3 stars 4 stars 5 stars
comments

Hot Dog Tab

Artist: Limp Bizkit
Song: Hot Dog


Intro
C#-------------------------------------------------------------
G#-------------------------------------------------------------
E---------9----------9--10----------9-------------x-x--x-x-----
B----------------------------------------------9--x-x--x-x-----
F#---0b---7----0b----7---8----0b----7----0b----7--x-x--x-x-----
C#---0b--------0b-------------0b---------0b--------------------
    *          *              *          *
*= Use the Whammy Bar to bend.

Verse
C#-------------------------------------------------------------
G#-------------------------------------------------------------
E---------10--9------11p9-11p9---------8--7--------------------
B--------------------------------------------------------------
F#---7-7--------7-7--------------7-7--------7-7--8h10p8-8h10p8-
C#-------------------------------------------------------------
[ Tab from: http://www.guitartabs.cc/tabs/l/limp_bizkit/hot_dog_tab.html ]
Interlude
Gtr. 1
C#-------------------------------------------------------------
G#-------------------------------------------------------------
E--------------------------------------------------------------
B--------------------------------------------------------------
F#---0---0------0---0--------0---0------0---0-----8-----8------
C#---0---0------0---0--------0---0------0---0---0-6-0-0-6--0-0-
P.M. -   -      -   -        -   -      -   -   - - - - -  - -
|
Gtr. 2
C#---0-0-0-0-0-0-0-0-0-0-0-0-0-0-0-0-0-0-0-0-0-0-0-0-0-0-0-0-0-
G#-------------------------------------------------------------
E--------------------------------------------------------------
B--------------------------------------------------------------
F#-------------------------------------------------------------
C#-------------------------------------------------------------
Whammy Bar:                    ~ ~ ~ ~ ~ ~ ~ ~ ~ ~ ~ ~ ~ ~ ~ ~

Breakdown
Gtr. 1
C#-------------------------------------------------------------
G#-------------------------------------------------------------
E-------------9p0--------9p0------------9p0--------------------
B-----------------------------------------------------8-----8--
F#------------7p0--------7p0------------7p0-----------8-----8--
C#---0---0---------0---0---------0---0-------0--0-----6-0-0-6--
|
Gtr. 2
C#---0-0-0-0-0-0-0-0-0-0-0-0-0-0-0-0-0-0-0-0-0-0-0-0-0-0-0-0-0-
G#-------------------------------------------------------------
E--------------------------------------------------------------
B--------------------------------------------------------------
F#-------------------------------------------------------------
C#-------------------------------------------------------------
Whammy Bar:                    ~ ~ ~ ~ ~ ~ ~ ~ ~ ~ ~ ~ ~ ~ ~ ~
Comments