Limp Bizkit - Hold On Chords & Tabs

 

Hold On Chords & Tabs

Limp Bizkit Chords & Tabs

Version: 8 Type: Tab 0 ratings
1 star 2 stars 3 stars 4 stars 5 stars
comments

Hold On Tab

          Limp Bizkit "Hold On"
Chocolate Starfish and the Hotdog Flavoued Water

I've seen many tabs that come close to this song but most
of them dont get the last bit just right
so this what i think it is. and if it sounds wrong your not
playing it right because when i play it, it sounds perfect
tuning: down 1 1/2 steps

C#---------------------------------------------
G#---------------------------------------------
E -------2-----2-------2------2--2p0h2---------
B -----------------0---------------------------
F#----0-------------------3--------------------
C#----------3----------------------------------
[ Tab from: http://www.guitartabs.cc/tabs/l/limp_bizkit/hold_on_tab_ver_8.html ]
C#---------------------------------------------
G#---------------------------------------------
E -------2-----2-------2------2--0h2h3p2-------
B -----------------0---------------------------
F#----0-------------------3--------------------
C#----------3----------------------------------

or for in standard tuning (but its a hell of lot easier to
play limp bizkits tuning but some people are just lazy)

E----------------------------------------------
B----------------------------------------------
G--------4-----4------4------4--4p2h4----------
D------------------2------0--------------------
A-----2-----0----------------------------------
E----------------------------------------------

E----------------------------------------------
B----------------------------------------------
G--------4-----4------4------4--2h4h5p4--------
D------------------2------0--------------------
A-----2-----0----------------------------------
E----------------------------------------------

and thats basically the whole song theres other bits in
there but there probibly done on a keyboard or somthing
and i can't be bothered to work out how there played.
Comments