Limp Bizkit - Hold On Chords & Tabs

 

Hold On Chords & Tabs

Limp Bizkit Chords & Tabs

Version: 5 Type: Tab 0 ratings
1 star 2 stars 3 stars 4 stars 5 stars
comments

Hold On Tab

Wes Boreland Of Limp Bizkit Showed me these tabs himself my aunt and uncle used to live near him and I would go to his house and we would jam and stuff 
we have known him for awhile now I mean hell I know the whole band they are all great guys Fred Wes you need to work things out and get it straight so that the band can be whole
and you guys can rock again anyway here is the tab

you dont tune down or up its just standard tuneing

Hold On

[ Tab from: http://www.guitartabs.cc/tabs/l/limp_bizkit/hold_on_tab_ver_5.html ]
C#---------------------------------------------------------
G#---------------------------------------------------------
E------4-----4-----4-----4-2-4-----------------------------
B---------------2-----0------------------------------------
F#--2-----0------------------------------------------------
C#---------------------------------------------------------

C#---------------------------------------------------------
G#---------------------------------------------------------
E------4-----4-----4-----4.br.5----------------------------
B---------------2-----0------------------------------------
F#--2-----0------------------------------------------------
C#---------------------------------------------------------

Comments