Limp Bizkit - Hold On Chords & Tabs

 

Hold On Chords & Tabs

Limp Bizkit Chords & Tabs

Version: 2 Type: Tab 0 ratings
1 star 2 stars 3 stars 4 stars 5 stars
comments

Hold On Tab

#----------------------------------PLEASE NOTE--------------------------------#
#This file is the author's own work and represents their interpretation of the#
#song. You may only use this file for private study, scholarship, or research.#
#-----------------------------------------------------------------------------#
#-- File created with Instab - http://www.pconline.com/~smcarey/instab.html --#
#-----------------------------------------------------------------------------#

Author/Artist: Limp Bizkit
Title: Hold On
Album: Choclate Starfish And The Hot Dog Flavoured Water
Transcribed by: Travis Lausch
Email: the4elements2001@hotmail.com

The best song on "Chocolate Starfish...". Period. And the only one with a guitar solo too!
Rhy. 1 is played for the ENTIRE song, but there are a lot of leads that go over it.
What's better than a song transcribed the whole way through without having to jump
back to the beginning...   NOTHING! 

-||----------------------|------------------------||--4^------------------|---
-||----------------------|------------------------||--4^------------------|---
-||*---------------------|-----------------------*||--4^------------------|---
-||*---6---6---6---6-4h6-|---6---6---6---6-6/7\6-*||----------------------|---
-||----------4---2-------|---------4---2----------||----------------------|---
-||--4---2---------------|-4---2------------------||----------------------|---
 Rhy. 1 played for whole song                      Gtr. 2 (clean w/delay)     

-||--7-6---------------------||-7--6--------/12--11---|-6-7-7/9-7-6---------|-
-||------9-7-6-4-/7-7-\6--4--||-------9---------------|-------------9-6-7-6-|-
-||*------------------------*||-----------------------|---------------------|-
-||*------------------------*||-----------------------|---------------------|-
-||--------------------------||-----------------------|---------------------|-
-||--------------------------||-----------------------|---------------------|-
 1st verse                                                                    

-||--7-6---------------------||-------------------|------------------------||-
-||------9-7-6-4-/7-7-\6--4--||---------7--6h7p6--|---------7--6h7p6/9-----||-
-||*------------------------*||*-----6------------|------6----------------*||-
-||*------------------------*||*---6--------------|----6------------------*||-
-||--------------------------||--4----------------|--4---------------------||-
-||--------------------------||-------------------|------------------------||-
 2nd verse                 x4  Chorus                                         
[ Tab from: http://www.guitartabs.cc/tabs/l/limp_bizkit/hold_on_tab_ver_2.html ]
-|-9--9--9--9p7--|--9---||--7-6----------------------||-------------------|---
-|---------------|------||-------9-7-6-4-/7-7-\6--4--||---------7--6h7p6--|---
-|---------------|------||*-------------------------*||*-----6------------|---
-|---------------|------||*-------------------------*||*---6--------------|---
-|---------------|------||---------------------------||--4----------------|---
-|---------------|------||---------------------------||-------------------|---
 Pre verse              2nd verse                  x8  2nd chorus             

-|--------------------||-7-----|-7-6---|----7v----------------------------|---
-|--------7--6h7p6/9--||-------|-------|----------------------------------|---
-|-----6-------------*||-------|-------|----------------------------------|---
-|---6---------------*||-------|-------|----------------------------------|---
-|-4------------------||-------|-------|----------------------------------|---
-|--------------------||-------|-------|----------------------------------|---
                      Pre Solo         Guitar Solo Gtr 3 w/dist and slide     

-|-7--/9--\7--|-/7\6-----------------------|-/7\6-------------------------|---
-|------------|------/9\7\6\4/7----/6----4-|------/9\7\6\4/7\6------------|---
-|------------|-----------------\6----\4---|------------------------------|---
-|------------|----------------------------|------------------------------|---
-|------------|----------------------------|------------------------------|---
-|------------|----------------------------|------------------------------|---
                                                                              

-|-/7\6---------------------|-/7--/9--/14--13--13\-|--4^------------------|---
-|------/9\7\6\4/7----/6----|----------------------|----------------------|---
-|-----------------/6----\4-|----------------------|----------------------|---
-|--------------------------|----------------------|----------------------|---
-|--------------------------|----------------------|----------------------|---
-|--------------------------|----------------------|----------------------|---
                                                   Gtr 2 Clean w/delay        

-||-----------------|------------------||-4^---|-12-9--|-12-9------|--------|-
-||--------7-6h7p6--|-------7-6h7p6/9--||------|-------|------12-9-|-/7-7-6-|-
-||*-----6----------|-----6-----------*||------|-------|-----------|--------|-
-||*---6------------|---6-------------*||------|-------|-----------|--------|-
-||--4--------------|-4----------------||------|-------|-----------|--------|-
-||-----------------|------------------||------|-------|-----------|--------|-
 3rd Chorus                          x6  Outro                                

-|-18---|-21---19-18---||--7-6--------------------||-12-9-------------------|-
-|------|--------------||-------9-7-6-4-/7-7-6-4--||------------------------|-
-|------|--------------||*-----------------------*||------------------------|-
-|------|--------------||*-----------------------*||------------------------|-
-|------|--------------||-------------------------||------------------------|-
-|------|--------------||-------------------------||------------------------|-
                       Begin Fade                                   fade out  

Comments