Limp Bizkit - Hold On Chords & Tabs

 

Hold On Chords & Tabs

Limp Bizkit Chords & Tabs

Version: 3 Type: Bass Tab 0 ratings
1 star 2 stars 3 stars 4 stars 5 stars
comments

Hold On Bass Tab

Corrected by bassman_nick@hotmail.com

tic tac i don't know where u got all those notes from but (no offense meant) 
jeeeeesus.

I'm pretty sure it goes like this:
[ Tab from: http://www.guitartabs.cc/tabs/l/limp_bizkit/hold_on_btab_ver_3.html ]
G|----13---13----13---13-11h13-|
D|------------11----9----------|
A|-11----9---------------------|
E|-----------------------------|

G|----13---13----13---13-13h14p13-|
D|------------11----9-------------|
A|-11----9------------------------|
E|--------------------------------|

This is probably my favorite song on the album so
i thought it'd better be right
Comments