Limp Bizkit - Headed For The Barricade Chords & Tabs

 

Headed For The Barricade Chords & Tabs

Limp Bizkit Chords & Tabs

Version: 1 Type: Tab 0 ratings
1 star 2 stars 3 stars 4 stars 5 stars
comments

Headed For The Barricade Tab

   
Limp Bizkit
"Headed For The Barricade"



Tuning: Drop B (B F# B E G# C#)




   Intro: w/dist
C#|-----------------------------------------------||
G#|-----------------------------------------------||
 E|-----------------------------------------------||
 B|-----------------------------------------------||
F#|-5/6--------------------5/6--------------------||
 B|-----0--0-0--0--0-0--0------0--0-0--0--0-0--0--||
  PM    .  . .  .  . .  .      .  . .  .  . .  .


   Verse: w/dist
C#|-----------------------------------------------||
G#|-----------------------------------------------||
 E|-----------------------------------------------||
 B|-----------------------------------------------||
F#|-5/6--------------------5/6--------------------||
 B|-----0--0-0--0--0-0--0------0--0-0--0--0-0--0--||
  PM    .  . .  .  . .  .      .  . .  .  . .  .


   Chorus: w/heavy dist
C#|----------------------------------------------------||
G#|----------------------------------------------------||
 E|----------------------------------------------------||
 B|----------------------------------------------------||
F#|-0-3--3--5-3--0-3--3--5-3--0-3--3--5-3--0-3--3--5-3-||
 B|-0-3--3--5-3--0-3--3--5-3--0-3--3--5-3--0-3--3--5-3-||

[ Tab from: http://www.guitartabs.cc/tabs/l/limp_bizkit/headed_for_the_barricade_tab.html ]
C#|--------------||
G#|--------------||
 E|--------------||
 B|-7---7--8---8-||
F#|---6------6---||
 B|--------------||


C#|----------------------------------------------------||
G#|----------------------------------------------------||
 E|----------------------------------------------------||
 B|----------------------------------------------------||
F#|-0-3--3--5-3--0-3--3--5-3--0-3--3--5-3--0-3--3--5-3-||
 B|-0-3--3--5-3--0-3--3--5-3--0-3--3--5-3--0-3--3--5-3-||


C#|-------------------------------------||
G#|-------------------------------------||
 E|-------------------------------------||
 B|-7---7--8---8--7---7--8---8----------||
F#|---6------7------6------7------------||
 B|-------------------------------------||



   Interlude: w/heavy dist
C#|---------------------------||
G#|---------------------------||
 E|---------------------------||
 B|---------------------------||
F#|-----5-5---6-5---5h8-5h6p5-||
 B|-0-0-----0-----0-----------||
  PM. .     .     .

   Interlude.pt.2: w/heavy dist
C#|----------------------------------------||
G#|----------------------------------------||
 E|----------------------------------------||
 B|----------------------------------------||
F#|----------------------------------------||
 B|-0-0-0-14~-0-0-0-11~-0-0-0-10~-0-0-0-9~-||


   End Chord
C#|------------------||
G#|------------------||
 E|------------------||
 B|-7----------------||
F#|-5----------------||
 B|------------------||


Comments