Limp Bizkit - Head For The Barricade Chords & Tabs

 

Head For The Barricade Chords & Tabs

Limp Bizkit Chords & Tabs

Version: 1 Type: Tab 0 ratings
1 star 2 stars 3 stars 4 stars 5 stars
comments

Head For The Barricade Tab

Band  : Limp Bizkit
Song  : Head for the Barricade
Album : Results May Vary
Tabber: Ernst 
Email : disketteni@hotmail.com

A lot of people think that this album sucks. And I agree on some of the songs, but I
still think that a lot of the songs really sounds great. And this is one of them. I
decided to tab it myself, because I thought some of the other tabs I found didn't
really sound like the real thing. So here's what I found out.


Tuning low to high, drop D 1 1/2 steps down: B F# B E G# C#

First the drums kick in. 

Intro/verse: (x12)

C#|---------------------------------------------------------------------|
G#|---------------------------------------------------------------------|
E |--7/8----------------------------------------------------------------|
B |---------------------------------------------------------------------|
F#|--5/6---0--0---0--0---0--0---0---------------------------------------|
B |--------0--0---0--0---0--0---0---------------------------------------|

Chorus: (stick 'em stick 'em etc.)

C#|---------------------------------------------------------------------|
G#|---------------------------------------------------------------------|
E |---------------------------------------------------------------------|
B |---0--3--5--3--------0--3--5--3--------0--3--5--3--------------------|
F#|---0--3--5--3--------0--3--5--3--------0--3--5--3--------------------|
B |---0--3--5--3--------0--3--5--3--------0--3--5--3--------------------|

C#|---------------------------------------------------------------------|
G#|---------------------------------------------------------------------|
E |-------------------------14-----------15-----------------------------|
B |---0--3--5--3--------13-----------14---------------------------------|
F#|---0--3--5--3----12-----------13-------------------------------------|
B |---0--3--5--3--------------------------------------------------------|

C#|---------------------------------------------------------------------|
G#|---------------------------------------------------------------------|
E |---------------------------------------------------------------------|
B |---0--3--5--3--------0--3--5--3--------0--3--5--3--------------------|
F#|---0--3--5--3--------0--3--5--3--------0--3--5--3--------------------|
B |---0--3--5--3--------0--3--5--3--------0--3--5--3--------------------|

C#|---------------------------------------------------------------------|
G#|---------------------------------------------------------------------|
E |-------------------------14-----------15------------14-----------15--|
B |---0--3--5--3--------13-----------14------------13-----------14------|
F#|---0--3--5--3----12-----------13------------12-----------13----------|
B |---0--3--5--3--------------------------------------------------------|

Verse: (x8)

C#|---------------------------------------------------------------------|
G#|---------------------------------------------------------------------|
E |--7/8----------------------------------------------------------------|
B |---------------------------------------------------------------------|
F#|--5/6---0--0---0--0---0--0---0---------------------------------------|
B |--------0--0---0--0---0--0---0---------------------------------------|

Chorus: (stick 'em stick 'em etc.)

C#|---------------------------------------------------------------------|
G#|---------------------------------------------------------------------|
E |---------------------------------------------------------------------|
B |---0--3--5--3--------0--3--5--3--------0--3--5--3--------------------|
F#|---0--3--5--3--------0--3--5--3--------0--3--5--3--------------------|
B |---0--3--5--3--------0--3--5--3--------0--3--5--3--------------------|

C#|---------------------------------------------------------------------|
G#|---------------------------------------------------------------------|
E |-------------------------14-----------15-----------------------------|
B |---0--3--5--3--------13-----------14---------------------------------|
F#|---0--3--5--3----12-----------13-------------------------------------|
B |---0--3--5--3--------------------------------------------------------|

C#|---------------------------------------------------------------------|
G#|---------------------------------------------------------------------|
E |---------------------------------------------------------------------|
B |---0--3--5--3--------0--3--5--3--------0--3--5--3--------------------|
F#|---0--3--5--3--------0--3--5--3--------0--3--5--3--------------------|
B |---0--3--5--3--------0--3--5--3--------0--3--5--3--------------------|
[ Tab from: http://www.guitartabs.cc/tabs/l/limp_bizkit/head_for_the_barricade_tab.html ]
C#|---------------------------------------------------------------------|
G#|---------------------------------------------------------------------|
E |-------------------------14-----------15------------14-----------15--|
B |---0--3--5--3--------13-----------14------------13-----------14------|
F#|---0--3--5--3----12-----------13------------12-----------13----------|
B |---0--3--5--3--------------------------------------------------------|

Bridge part 1: (x8)
                                                        Last time
C#|----------------------------------------------------|------------------|
G#|----------------------------------------------------|------------------|
E |----------------------------------------------------|------------------|
B |----------------------------------------------------|------------------|
F#|---------5-----5--------6-----5--------5--8--5h6p5--|-------5--5-------|
B |---0--0-----0-----0--0-----0-----0--0---------------|-0--0--------0--0-|

Brigde part 2: (Fight, fight, fight etc.) (x8)

C#|---------------------------------------------------------------------|
G#|---------------------------------------------------------------------|
E |---------------------------------------------------------------------|
B |---------------------------------------------------------------------|
F#|---------5-----5--------6-----5--------5--8--5h6b5-------------------|
B |---0--0-----0-----0--0-----0-----0--0--------------------------------|

Brigde part 3a: (I ain't playing around etc.) (x2)

C#|---------------------------------------------------------------------|
G#|---------------------------------------------------------------------|
E |-------------9-------------6-------------5-------------4-------------|
B |---3--0---0------3--0---0------3--0---0------3--0---0----------------|
F#|---3--0---0--7---3--0---0--4---3--0---0--3---3--0---0--2-------------|
B |---3--0---0------3--0---0------3--0---0------3--0---0----------------|

Brigde part 3b: (x2)

C#|------------24~-----------21~-----------20~-----------19~------------|
G#|---------------------------------------------------------------------|
E |---------------------------------------------------------------------|
B |---3--0---0------3--0---0------3--0---0------3--0---0----------------|
F#|---3--0---0------3--0---0------3--0---0------3--0---0----------------|
B |---3--0---0------3--0---0------3--0---0------3--0---0----------------|

Chorus: (stick 'em stick 'em etc.)

C#|---------------------------------------------------------------------|
G#|---------------------------------------------------------------------|
E |---------------------------------------------------------------------|
B |---0--3--5--3--------0--3--5--3--------0--3--5--3--------------------|
F#|---0--3--5--3--------0--3--5--3--------0--3--5--3--------------------|
B |---0--3--5--3--------0--3--5--3--------0--3--5--3--------------------|

C#|---------------------------------------------------------------------|
G#|---------------------------------------------------------------------|
E |-------------------------14-----------15-----------------------------|
B |---0--3--5--3--------13-----------14---------------------------------|
F#|---0--3--5--3----12-----------13-------------------------------------|
B |---0--3--5--3--------------------------------------------------------|

C#|---------------------------------------------------------------------|
G#|---------------------------------------------------------------------|
E |---------------------------------------------------------------------|
B |---0--3--5--3--------0--3--5--3--------0--3--5--3--------------------|
F#|---0--3--5--3--------0--3--5--3--------0--3--5--3--------------------|
B |---0--3--5--3--------0--3--5--3--------0--3--5--3--------------------|

C#|---------------------------------------------------------------------|
G#|---------------------------------------------------------------------|
E |-------------------------14-----------15------------14-----------15--|
B |---0--3--5--3--------13-----------14------------13-----------14------|
F#|---0--3--5--3----12-----------13------------12-----------13----------|
B |---0--3--5--3--------------------------------------------------------|

C#|---------------------------------------------------------------------|
G#|---------------------------------------------------------------------|
E |-----------14-----------15-------------------------------------------|
B |-------13-----------14-----------------------------------------------|
F#|---12-----------13------------12-------------------------------------|
B |---------------------------------------------------------------------|

That's it. It is not that hard once you get the picture, hope you'll enjoy. if
there's any problems, or if you have any corrections, email me!

Make yourself ready to die, then you'll be ready to live! 

Peace!
Comments