Limp Bizkit - Gimme The Mic Chords & Tabs

 

Gimme The Mic Chords & Tabs

Limp Bizkit Chords & Tabs

Version: 1 Type: Tab 0 ratings
1 star 2 stars 3 stars 4 stars 5 stars
comments

Gimme The Mic Tab

   
Limp Bizkit
"Gimme The Mic"


NOTES:

Tuning: B-F#-B-E-G#-C# (low to high)





i just fixed the chorus enjoy!


  Intro: w/heavy dist
 |--------------------------------------------------|
 |--------------------------------------------------|
 |--------------------------------------------------|
 |--------------------------------------------------|
 |-1-0--1-0-1--1-0--1-0-1--1-0--1-0-1--1--0-1-0-1-0-|
 |-1-0--1-0-1--1-0--1-0-1--1-0--1-0-1--1--0-1-0-1-0-|
 PM     . .         . .         . .       
[ Tab from: http://www.guitartabs.cc/tabs/l/limp_bizkit/gimme_the_mic_tab.html ]
  Fill: w/heavy dist                                                                            
  'hold up'  
 |-----------------------|
 |-----------------------|
 |-----------------------|
 |-----------------------|
 |------------------0-1--|
 |------------------0-1--|
                                                                             
  Pre Chouorus: w/dist
 |-------------------------------------|
 |-------------------------------------|
 |-------------------------------------|
 |-7-7-7-7-7-7-7-7-7-7-7-7-7-7-8-8-8-8-|
 |-5-5-5-5-5---------5-5-5-5-5---------|
 |-------------------------------------|
 PM.........         .........
                                                                              
  Chorus: w/heavy dist
 |-----------------------|
 |-----------------------|
 |-----------------------|
 |-2---2-------02-2------|
 |-2---2-3-3---02-2-3-3--|
 |-2---2--2-2--02-2--2-2-|
                                                                              
  Interlude: w/heavy dist
 |----------------------------------|
 |----------------------------------|
 |----------------------------------|
 |----------------------------------|
 |--------------1--0--1--0----------|
 |-1-1-1-1-1-1--1--0--1--0-1--1-1-1-|
 PM...........             ........
                                                                              
  end riff: w/heavy dist
 |-------|
 |-------|
 |-------|
 |--0-2--|
 |--0-2--|
 |--0-2--|
Comments