Limp Bizkit - Full Nelson Chords & Tabs

 

Full Nelson Chords & Tabs

Limp Bizkit Chords & Tabs

Version: 1 Type: Tab 0 ratings
1 star 2 stars 3 stars 4 stars 5 stars
comments

Full Nelson Tab

   
Song:full nelson
Artist:Limp Bizkit
Album:Chocolate starfish and the hot dog flavored water
music&lyrics by Limp Bizkit
tuning:C# G# E B F# F#
             [the correct way to play it]
[intro:]
 --------------------------------------------------------
 --------------------------------------------------------
 --/15--14--14-----14--------15-15--14--14-----14--------
 --------------------------------------------------------
 --/13--12--12--0--12--0-----13-13--12--12--0--12---10---
 ---------------0------0--------------------0-------10---

 -----------------------------------------
 ----/------------------------------------
 --7/-----------15------------14----------
 -----------------------------------------
 ------------0---------0--0---------x-x---
 -----------------------------------------

[chorus]
 -------------------------------------------------
 -------------------------------------------------
 -------------------------------------------------
 --------^ ^-^--^--^------------------------------
 --0--0--5-5-5-3-4------3-5--0-0--5--3-3--0--6----
 --0--0-----------------3-5--0-0--5--3-3--0--6----
[ Tab from: http://www.guitartabs.cc/tabs/l/limp_bizkit/full_nelson_tab.html ]
                               
 -------------------------------------------------
 -------------------------------------------------
 -----------12-14--------12-14-12-------12--------
 -------------------------------------------------
 -0-----0--------------------------10-------------
 -0--0---------------15---------------------------

                                   "so where you at"
 --------------------------------------------------
 --------------------------------------------------
 -----------12-14---------12-14-12-----------------
 --------------------------------------------------
 ------0-------------------------------------------
 --0----------------15---------------10--0--10-----

"how   pathetic    are     poeple" 
 ----------------------------------------
 ----------------------------------------
 ----------------------------------------
 ----------------------------------------
 ----------------------------------------    
 --14--0---0--12~--0--14--0--0--12~--0---

-------------------------------------------
-------------------------------------------
-------------------------------------------
-------------------------------------------
-------------------------------------------
--14--0--0--12~--0--14--0--0--14--0--0-----


"burn this motherfucker down, down, down"
 ------------------------------------------
 ------------------------------------------
 ------------------------------------------
 ------------------------------------------
 --14--0--0--12--0--14--0--0--12--0--------
 --14--0--0--12--0--14--0--0--12--0--------

 -----------------------------------------
 -----------------------------------------
 -----------------------------------------
 -----------------------------------------
 --14--0--0--12--0--14--0--0--14--0--0----
 --14--0--0--12--0--14--0--0--14--0--0----
Comments