Limp Bizkit - Full Nelson Chords & Tabs

 

Full Nelson Chords & Tabs

Limp Bizkit Chords & Tabs

Version: 1 Type: Bass Tab 0 ratings
1 star 2 stars 3 stars 4 stars 5 stars
comments

Full Nelson Bass Tab

Artist: Limp Bizkit
Song: Full Nelson
Album: chocolate starfish and the hot dog flavored water

A tab by Tic Tac
@ = tic_tac_84@hotmail.com

Comments:

This is a Update!
I have taking away how many times you gonna
play, Becasue I dont think that is needed. Play
how many times you fell is right!

________________________________________


Intro:
G |-----------------------------
D |-----------------------------
A |------22-3-4------33-4-5-----
E |--0-0--------0-00------------
          s  s                    s   ss

Vers:

G |---------------------------------------------
D |---------------------------------------------
A |--555555555555/6\555555555555/6\55555555555---
E |---------------------------------------------

[ Tab from: http://www.guitartabs.cc/tabs/l/limp_bizkit/full_nelson_btab.html ]
Chorus:
G |--------------------------
D |--------------------------
A |--4-4--55-66-77---6-5-----
E |----------------6---------

Vers
Chorus

Interlude:

G |--4-----6-----------5---4h5p4---
D |----6-5---5-6-5-4h5-------------
A |----------------------------------
E |----------------------------------

G |------------------------
D |------------------------
A |--55--66--77------------
E |-------------------------

G |-------------------------
D |-------------------------
A |--55-55-55-66-77---------
E |-------------------------

Chorus


_____________________________

Symbols:

2:     let the note ring
~2    vibrate the note
‰3    vibrate the note up and down
2/~  vibrate the note when pulling it up or down
\/     pull it up or down
3h4  hammer on from note 3 too 4
5p4  pull off from note 5 too 4
s      Slap Note
p      pop note


Comments