Limp Bizkit - Faith Chords & Tabs

 

Faith Chords & Tabs

Limp Bizkit Chords & Tabs

Version: 7 Type: Tab 0 ratings
1 star 2 stars 3 stars 4 stars 5 stars
comments

Faith Tab

Limp Bizkit, Faith.
Tabbed by Brett Massingham, kornfreak_40@hotmail.com.
  
Artist: Limp Bizkit
Title: Faith
Album: Three Dollar Bill Y'all
Tabbed by: Brett Massingham
E-Mail: kornfreak_40@hotmail.com

Standard Tuning
[ Tab from: http://www.guitartabs.cc/tabs/l/limp_bizkit/faith_tab_ver_7.html ]
E|---9---9---9---9---9---0---|
B|---9---9---9---9---9---0---|
G|---9---9---9---9---9---0---|
D|---------------------------|    x 3
A|---------------------------|
E|---------------------------|

E|---9---9---9---|
B|---9---9---9---|
G|---9---9---9---|
D|---------------|
A|---------------|
E|---------------|

:: Ultimate Guitar Archive :: 
http://www.ultimate-guitar.com 



Comments