Limp Bizkit - Faith Chords & Tabs

 

Faith Chords & Tabs

Limp Bizkit Chords & Tabs

Version: 6 Type: Tab 0 ratings
1 star 2 stars 3 stars 4 stars 5 stars
comments

Faith Tab

Limp Bizkit, Faith.
 Tabbed by Andy, andy_young_04@hotmail.com.
  

Intro:
e|--7--x-----x-----x-x--7-7--x-x--7--x-----x-----x-x--
B|--7--x-----x-----x-x--7-7--x-x--7--x-----x-----x-x--
G|--8--x--8--x--8--x-x--8-8--x-x--8--x--8--x--8--x-x--
D|--9--x--9--x--9--x-x--9-9--x-x--9--x--9--x--9--x-x--
A|--9--x--9--x--9--x-x--9-9--x-x--9--x--9--x--9--x-x--
E|--7--x--7--x--7--x-x--7-7--x-x--7--x--7--x--7--x-x--

e|--7-7--x-x--7--x-----x-----x-x--7-7--x-x--7--x-x-x-x
B|--7-7--x-x--7--x-----x-----x-x--7-7--x-x--7--x-x-x-x
G|--8-8--x-x--8--x--8--x--8--x-x--8-8--x-x--8--x-x-x-x
D|--9-9--x-x--9--x--9--x--9--x-x--9-9--x-x--9--x-x-x-x
A|--9-9--x-x--9--x--9--x--9--x-x--9-9--x-x--9--x-x-x-x
E|--7-7--x-x--7--x--7--x--7--x-x--7-7--x-x--7--x-x-x-x

e|--7-|
B|--7-|
G|--8-|
D|--9-|
A|--9-|
E|--7-|

Verse:
e|--7-x-x-x-x-7--x-x--7-7--x-x--7-x-x-x-x-x-x-7-7-x-x
B|--7-x-x-x-x-7--x-x--7-7--x-x--7-x-x-x-x-x-x-7-7-x-x
G|--8-x-x-x-x-8--x-x--8-8--x-x--8-x-x-x-x-x-x-8-8-x-x-
D|--9-x-x-x-x-9--x-x--9-9--x-x--9-x-x-x-x-x-x-9-9-x-x-A|--9-x-x-x-x-9--x-x--9-9--x-x--9-x-x-x-x-x-x-9-9-x-x-
E|--7-x-x-x-x-7--x-x--7-7--x-x--7-x-x-x-x-x-x-7-7-x-x-
[ Tab from: http://www.guitartabs.cc/tabs/l/limp_bizkit/faith_tab_ver_6.html ]
e|--7--x-7--7--x--7--x--7--x-x--7-7--x-x--7--x-x-x-x
B|--7--x-7--7--x--7--x--7--x-x--7-7--x-x--7--x-x-x-x
G|--8--x-8--8--x--8--x--8--x-x--8-8--x-x--8--x-x-x-x
D|--9--x-9--9--x--9--x--9--x-x--9-9--x-x--9--x-x-x-x
A|--9--x-9--9--x--9--x--9--x-x--9-9--x-x--9--x-x-x-x
E|--7--x-7--7--x--7--x--7--x-x--7-7--x-x--7--x-x-x-x

e|--7--x-x--7--7|
B|--7--x-x--7--7|
G|--8--x-x--8--8|
D|--9--x-x--9--9|
A|--9--x-x--9--9|
E|--7--x-x--7--7|

Prechorus:
e|--------------------------------------------------
A|------------------------------5------------------5
D|----8-----6----7----4----6---------4---3-3h4p3-4--
G|------9----7----8----5----7----6----5-------------
B|--9------7----8----5----7----6----5---------------
E|-7------5----6----3----5----4----3----------------

Chorus:
E|----------------------------
B|----------------------------
G|----------------------------
D|-9-9--9-9--9-9--9-9---------    x4
A|-9-9--9-9--9-9--9-9---------
E|-7-7--7-7--7-7--7-7--7h9p7--

On the prechorus, put these hammer on's in the needed spots:

e|-------|-------|
B|-------|-------|
G|-6h8p6-|-7h9p7-|
D|-------|-------|
A|-------|-------|
E|-------|-------| 
:: Ultimate Guitar Archive :: 
http://www.ultimate-guitar.com 

 
Comments