Limp Bizkit - Faith Chords & Tabs

 

Faith Chords & Tabs

Limp Bizkit Chords & Tabs

Version: 5 Type: Tab 1 rating
1 star 2 stars 3 stars 4 stars 5 stars
comments

Faith Tab

#----------------------------------PLEASE NOTE---------------------------------#
#This file is the author's own work and represents their interpretation of the #
#song. You may only use this file for private study, scholarship, or research. #
#------------------------------------------------------------------------------#
Faith
Limp Bizkit

I've seen many versions of this song all over the web but this is the correct version. It's doe lower than most of the other tabs tat I've seen but that's because Limp Bizkit us 7-string Ibenez guitars (duh)!

1:5-x-x-x-x-5-x-x-5-5
2:5-x-x-x-x-5-x-x-5-5
3:6-x-x-x-x-6-x-x-6-6
4:7-x-x-x-x-7-x-x-7-7
5:7-x-x-x-x-7-x-x-7-7
6:5-x-x-x-x-5-x-x-5-5

play this 3 times then,
1:5-x-x-x-x-5
2:5-x-x-x-x-5
3:6-x-x-x-x-6
4:7-x-x-x-x-7
5:7-x-x-x-x-7
6:5-x-x-x-x-5
 (short pause)

"well i guess it would be nice"
1:5-x-x-x-x-5-x-x-5-5--5-x-x-x-x-5-x-x-5-5
2:5-x-x-x-x-5-x-x-5-5--5-x-x-x-x-5-x-x-5-5
3:6-x-x-x-x-6-x-x-6-6--6-x-x-x-x-6-x-x-6-6
4:7-x-x-x-x-7-x-x-7-7--7-x-x-x-x-7-x-x-7-7
5:7-x-x-x-x-7-x-x-7-7--7-x-x-x-x-7-x-x-7-7
6:5-x-x-x-x-5-x-x-5-5--5-x-x-x-x-5-x-x-5-5

[ Tab from: http://www.guitartabs.cc/tabs/l/limp_bizkit/faith_tab_ver_5.html ]
1:3-x-x-x-x-3-x-x-3-3--5-x-x-x-x-5-x-x-5-5
2:3-x-x-x-x-3-x-x-3-3--5-x-x-x-x-5-x-x-5-5
3:4-x-x-x-x-4-x-x-4-4--6-x-x-x-x-6-x-x-6-6
4:5-x-x-x-x-5-x-x-5-5--7-x-x-x-x-7-x-x-7-7
5:5-x-x-x-x-5-x-x-5-5--7-x-x-x-x-7-x-x-7-7
6:3-x-x-x-x-3-x-x-3-3--5-x-x-x-x-5-x-x-5-5
play these 2 times then the part where he says,"oh but i need some time off...."


1:---------------------------------------1--
2:---------------5-------------------1121---
3:---6----4----5-----2----4----3----2-------
4:--7----5----6-----3----5----4----3--------
5:-7----5----6-----3----5----4----3---------
6:5----3----4-----1----3----2----1----------


"FAITH!!!!"
4:7-7-7-7-7-7-7-7-7/    (if you don't know, /=bend)
5:7-7-7-7-7-7-7-7-7/
6:5-5-5-5-5-5-5-5-5/
 play that 4 times
(pause "baby")


1:5-5-5-5-5-5-5-5-5-5/--5-5-5-5-5-5-5-5-5-5/
2:5-5-5-5-5-5-5-5-5-5/--5-5-5-5-5-5-5-5-5-5/
3:6-6-6-6-6-6-6-6-6-6/--6-6-6-6-6-6-6-6-6-6/
4:7-7-7-7-7-7-7-7-7-7/--7-7-7-7-7-7-7-7-7-7/
5:7-7-7-7-7-7-7-7-7-7/--7-7-7-7-7-7-7-7-7-7/
6:5-5-5-5-5-5-5-5-5-5/--5-5-5-5-5-5-5-5-5-5/


1:3-3-3-3-3-3-3-3-3-3/--5-5-5-5-5-5-5-5-5-5/
2:3-3-3-3-3-3-3-3-3-3/--5-5-5-5-5-5-5-5-5-5/
3:4-4-4-4-4-4-4-4-4-4/--6-6-6-6-6-6-6-6-6-6/
4:5-5-5-5-5-5-5-5-5-5/--7-7-7-7-7-7-7-7-7-7/
5:5-5-5-5-5-5-5-5-5-5/--7-7-7-7-7-7-7-7-7-7/
6:3-3-3-3-3-3-3-3-3-3/--5-5-5-5-5-5-5-5-5-5/
play this two times then the part where he said "but i need some time off.." it's still the sme tab 
but he just says "befre this river.." and then again where he says "FAITH!!!!" and then finally the part that i haven't seen anywhere else but you can obta

4:3-4-3-4-3-4-3-4-4/
5:3-4-3-4-3-4-3-4-4/
6:1-2-1-2-1-2-1-2-2/
play this part over and over to a sudden stop at the ending of the song



tabbed by billy "chong" palacio
e-mail: pornocreep68@webtv.net
Comments