Limp Bizkit - Faith Chords & Tabs

 

Faith Chords & Tabs

Limp Bizkit Chords & Tabs

Version: 4 Type: Tab 0 ratings
1 star 2 stars 3 stars 4 stars 5 stars
comments

Faith Tab

   
#----------------------------------PLEASE NOTE---------------------------------#
#This file is the author's own work and represents their interpretation of the #
#song. You may only use this file for private study, scholarship, or research. #
#------------------------------------------------------------------------------#

Limp Bizkit
Faith
standard tuning, remove high e string for best sound
tabbed by Ian MacFarlane
ianmac@ureach.com

Intro: Clean

0:00

B--7-x---x---x-x-7-7-x-x-7-x---x---x-x-7-7-x-x-7-x---x---x-x-7-7-x-x
G--8-x-8-x-8-x-x-8-8-x-x-8-x-8-x-8-x-x-8-8-x-x-8-x-8-x-8-x-x-8-8-x-x
D--9-x-9-x-9-x-x-9-9-x-x-9-x-9-x-9-x-x-9-9-x-x-9-x-9-x-9-x-x-9-9-x-x
A--9-x-9-x-9-x-x-9-9-x-x-9-x-9-x-9-x-x-9-9-x-x-9-x-9-x-9-x-x-9-9-x-x
E--7-x-7-x-7-x-x-7-7-x-x-7-x-7-x-7-x-x-7-7-x-x-7-x-7-x-7-x-x-7-7-x-x

B--7-x-x-x-x-x-x-7
G--8-x-x-x-x-x-x-8
D--9-x-x-x-x-x-x-9
A--9-x-x-x-x-x-x-9
E--7-x-x-x-x-x-x-7

Well i guess it would be  

Verse:    


B---7-x-x-x-x-7-x-x-7-7-x-x-7-x-x-x-x-x-x-7-7-x-x
G---8-x-x-x-x-8-x-x-8-8-x-x-8-x-x-x-x-x-x-8-8-x-x
D---9-x-x-x-x-9-x-x-9-9-x-x-9-x-x-x-x-x-x-9-9-x-x
A---9-x-x-x-x-9-x-x-9-9-x-x-9-x-x-x-x-x-x-9-9-x-x
E---7-x-x-x-x-7-x-x-7-7-x-x-7-x-x-x-x-x-x-7-7-x-x

     

B---5-x-5-x-5-x-x-5-5-x-x-x-7-x-x-x-x-7-7-x-x-x-7-7-x-7-7-x
G---6-x-6-x-6-x-x-6-6-x-x-x-8-x-x-x-x-8-8-x-x-x-8-8-x-8-8-x
D---7-x-7-x-7-x-x-7-7-x-x-x-9-x-x-x-x-9-9-x-x-x-9-9-x-9-9-x
A---7-x-7-x-7-x-x-7-7-x-x-x-9-x-x-x-x-9-9-x-x-x-9-9-x-9-9-x
E---5-x-5-x-5-x-x-5-5-x-x-x-7-x-x-x-x-7-7-x-x-x-7-7-x-7-7-x



B---7-x-x-x-x-7-x-x-7-7-x-x-7-x-x-x-x-x-x-7-7-x-x
G---8-x-x-x-x-8-x-x-8-8-x-x-8-x-x-x-x-x-x-8-8-x-x
D---9-x-x-x-x-9-x-x-9-9-x-x-9-x-x-x-x-x-x-9-9-x-x
A---9-x-x-x-x-9-x-x-9-9-x-x-9-x-x-x-x-x-x-9-9-x-x
E---7-x-x-x-x-7-x-x-7-7-x-x-7-x-x-x-x-x-x-7-7-x-x
      

B---5-x-5-x-5-x-x-5-5-x-x-x-7-x-x-x-x-7-7-x-x-x-7-7-x-7-7-x
G---6-x-6-x-6-x-x-6-6-x-x-x-8-x-x-x-x-8-8-x-x-x-8-8-x-8-8-x
D---7-x-7-x-7-x-x-7-7-x-x-x-9-x-x-x-x-9-9-x-x-x-9-9-x-9-9-x
A---7-x-7-x-7-x-x-7-7-x-x-x-9-x-x-x-x-9-9-x-x-x-9-9-x-9-9-x
E---5-x-5-x-5-x-x-5-5-x-x-x-7-x-x-x-x-7-7-x-x-x-7-7-x-7-7-x

 

B---7-x-x
G---8-x-x
D---9-x-x
A---9-x-x
E---7-x-x


B------------------------------------------------------------------------
G--------------8----------------------6-----------------------4----------
D----------------9----------------------7------------------------5-------
A-----------9----------------------7------------------------5------------
E--7---------------------5----------------------------3------------------



B------------------------------------------------------
G--------6------------------5------------------7-------
D------------7------------------6------------------8---
A----7------------------6------------------8-----------
E--5----------------4------------------6---------------


B---------------------------------------------------------------
G---------------5---------------------------------5-------------
D------------------------6-----------------------------------6--
A----------6------------------------------6---------------------
E--4-------------------------------4----------------------------


Chorus: distortion
[ Tab from: http://www.guitartabs.cc/tabs/l/limp_bizkit/faith_tab_ver_4.html ]
0:52   i  gotta   have  faith______
0:54
0:57B-----------------------------repeat 3x 
0:59G-----------------------------
D----------9-9-9-9-9-9-9-9-9--
A----------9-9-9-9-9-9-9-9-9--
E----------7-7-7-7-7-7-7-7-7--



Verse 2: heavy distortion 


B---7-x-x-x-x-7-x-x-7-7-x-x-7-x-x-x-x-x-x-7-7-x-x
G---8-x-x-x-x-8-x-x-8-8-x-x-8-x-x-x-x-x-x-8-8-x-x
D---9-x-x-x-x-9-x-x-9-9-x-x-9-x-x-x-x-x-x-9-9-x-x
A---9-x-x-x-x-9-x-x-9-9-x-x-9-x-x-x-x-x-x-9-9-x-x
E---7-x-x-x-x-7-x-x-7-7-x-x-7-x-x-x-x-x-x-7-7-x-x
 
       
B---7--5-x-5-x-5-x-x-5-5-x-x-x-7-x-x-x-x-7-7-x-x-x-7-7-x-7-7-x
G---8--6-x-6-x-6-x-x-6-6-x-x-x-8-x-x-x-x-8-8-x-x-x-8-8-x-8-8-x
D---9--7-x-7-x-7-x-x-7-7-x-x-x-9-x-x-x-x-9-9-x-x-x-9-9-x-9-9-x
A---9--7-x-7-x-7-x-x-7-7-x-x-x-9-x-x-x-x-9-9-x-x-x-9-9-x-9-9-x
E---7--5-x-5-x-5-x-x-5-5-x-x-x-7-x-x-x-x-7-7-x-x-x-7-7-x-7-7-x


B---7-x-x
G---8-x-x
D---9-x-x
A---9-x-x
E---7-x-x
       

B---7-x-x-x-x-7-x-x-7-7-x-x-7-x-x-x-x-x-x-7-7-x-x
G---8-x-x-x-x-8-x-x-8-8-x-x-8-x-x-x-x-x-x-8-8-x-x
D---9-x-x-x-x-9-x-x-9-9-x-x-9-x-x-x-x-x-x-9-9-x-x
A---9-x-x-x-x-9-x-x-9-9-x-x-9-x-x-x-x-x-x-9-9-x-x
E---7-x-x-x-x-7-x-x-7-7-x-x-7-x-x-x-x-x-x-7-7-x-x
      
    
      
B---5-x-5-x-5-x-x-5-5-x-x-x-5-x-x-x-x-7-7-x-x-x-7-7-x-7-7-x
G---6-x-6-x-6-x-x-6-6-x-x-x-6-x-x-x-x-8-8-x-x-x-8-8-x-8-8-x
D---7-x-7-x-7-x-x-7-7-x-x-x-7-x-x-x-x-9-9-x-x-x-9-9-x-9-9-x
A---7-x-7-x-7-x-x-7-7-x-x-x-7-x-x-x-x-9-9-x-x-x-9-9-x-9-9-x
E---5-x-5-x-5-x-x-5-5-x-x-x-5-x-x-x-x-7-7-x-x-x-7-7-x-7-7-x


B--------------------------------------
G------------8---------------6---------
D-----------------9--------------7-----
A-------9----------------7-------------
E--7------------------5----------------


B------------------------------------------
G--------------4-----------------6---------
D-------------------5----------------7-----
A---------5------------------7-------------
E--3--------------------5------------------


B------------------------------------------
G----------5--------------------7----------
D--------------6---------------------8-----
A------6--------------------8--------------
E--4---------------------6-----------------


B-------------------------------------------------------------------
G----------------------5-----------------------------5--------------
D--------------------------------6----------------------------------
A------------6----------------------------------6------------6------
E---4---------------------------------4-----------------------------


1:42you just gotta have faith_______
1:44
1:47B---------------------------------repeat 3x
1:49G---------------------------------
D-------------9-9-9-9-9-9-9-9-9---
A-------------9-9-9-9-9-9-9-9-9--- 
E-------------7-7-7-7-7-7-7-7-7--- 


1:52just gotta have faith______________(whine)

B------------------------------------------------------- repeat 6x
G-------------------------------------------------------
D--9-9--9-9--9-9--9-9--11--11--9-9--9-9--9-9--9-9--7--7-
A--9-9--9-9--9-9--9-9--11--11--9-9--9-9--9-9--9-9--7--7- 
E--7-7--7-7--7-7--7-7---9---9--7-7--7-7--7-7--7-7--5--5- 


2:17AHHHHHHHHHHHHHHHHHHHHHHHHHH

B------------------------------------------
G------------------------------------------
D-9-9-9-9-9-9-9-9-9-9-9-9-9-9-9-9-9-9-9-9-9
A-9-9-9-9-9-9-9-9-9-9-9-9-9-9-9-9-9-9-9-9-9
E-7-7-7-7-7-7-7-7-7-7-7-7-7-7-7-7-7-7-7-7-7

Comments