Limp Bizkit - Faith Chords & Tabs

 

Faith Chords & Tabs

Limp Bizkit Chords & Tabs

Version: 3 Type: Tab 1 rating
1 star 2 stars 3 stars 4 stars 5 stars
comments

Faith Tab

#----------------------------------PLEASE NOTE---------------------------------#
#This file is the author's own work and represents their interpretation of the #
#song. You may only use this file for private study, scholarship, or research. #
#------------------------------------------------------------------------------#
Song: Faith
Band: Limp Bizkit

Hey!  I have searched and searched for the correct version of Faith on
the net many many times and come up empty handed.  There are quite a 
few versions of it out there, but they are all wrong, so I decided to 
tab it myself.  This should be right.  THE MIDDLE OF THE SONG IS ALMOST
PERFECT if thats what you're looking for!  If you have any questions
email me at jenniferdurst@yahoo.com!  Thanx! Jen  P.S. This took a 
while to do because I dont have a tabliture program so sorry if its a
little off!

Tuning-Clean

h-hammer on
p-pull off
x-play the same notes as previously mentioned
*-singing starts before guitar plays

The beginning is Palm Muted.  (Listen to the CD to get the correct 
spacing between the beginning notes.)
[ Tab from: http://www.guitartabs.cc/tabs/l/limp_bizkit/faith_tab_ver_3.html ]
e-7-x-----------x-x------7-x-----x-x-x-----x---5-x-----x-x-x-----x---
B-7-x-----------x-x------7-x-----x-x-x-----x---5-x-----x-x-x-----x---
G-8-x-----------x-x------8-x-----x-x-x-----x---6-x-----x-x-x-----x---
D-9-x-x-x-x-x-x-x-x------9-x-x-x-x-x-x-x-x-x---7-x-x-x-x-x-x-x-x-x---
A-9-x-x-x-x-x-x-x-x------9-x-x-x-x-x-x-x-x-x---7-x-x-x-x-x-x-x-x-x---
E-7-x-x-x-x-x-x-x-x------7-x-x-x-x-x-x-x-x-x---5-x-x-x-x-x-x-x-x-x---
  [Intro then pause]*      Well I guess it...    Everybody has got a...

e-7-x-----x-x-x-----x------------------------------------------------
B-7-x-----x-x-x-----x---------------2-------4---------2-------4------
G-8-x-----x-x-x-----x-----------------2-------4-4-------2-------4-4--
D-9-x-x-x-x-x-x-x-x-x-------------2-------4---------2-------4--------
A-9-x-x-x-x-x-x-x-x-x-----------0-------2---------0-------2----------
E-7-x-x-x-x-x-x-x-x-x------------------------------------------------
   .....like me  [pause]*   oh but I need some time off....

e-----------------------------------2--------------------------------
B-----2---------4----------------------------------------------------
G-------2-2-------4-----3---3h4p3------------------------------------
D---2---------4-----------4-------4----------9-x-x-x-x-x-x-x-x-------
A-0---------2---------4----------------------9-x-x-x-x-x-x-x-x-------
E-------------------2------------------------7-x-x-x-x-x-x-x-x-------
                                  [pause]* I gotta have faith....


Thats about it!  Just finish the song with the power chords from 
before and the middle part.  There are only 2 verses then the song 
pretty much goes psycho playing the 9-9-7 as in the refrain.  I hope 
You can figure this out!  Jen
Comments