Limp Bizkit - Faith Chords & Tabs

 

Faith Chords & Tabs

Limp Bizkit Chords & Tabs

Version: 2 Type: Tab 0 ratings
1 star 2 stars 3 stars 4 stars 5 stars
comments

Faith Tab

				"Faith"
			     by Limp Bizkit

	KEY:
	`=bend
	/=slide
	x=scratch, or dead the strings, what ever its called 		



	 INTRO
	 |----------------------------|
         |----------------------------|
         |-6x6x6xx6-6--6x6x6xx6-6--xx-|
         |-6x6x6xx6-6--6x6x6xx6-6--xx-|
         |-4x4x4xx4-4--4x4x4xx4-4--xx-|
         |----------------------------|

         VERSE1(clean tone)
	 |---------------------------------------------------|
	 |---------------------------------------------------|
         |-6x6x6xx6-6--6x6x6xx6-6--4x4x4xx4-4--6x6x6xx6-6-xx-|
         |-6x6x6xx6-6--6x6x6xx6-6--4x4x4xx4-4--6x6x6xx6-6-xx-|
         |-3x3x3xx3-3--3x3x3xx3-3--2x2x2xx2-2--4x4x4xx4-4-xx-|
         |---------------------------------------------------|
[ Tab from: http://www.guitartabs.cc/tabs/l/limp_bizkit/faith_tab_ver_2.html ]
         INBETWEENER (a few times)       (last time- alomg w/the words)           
	 |------------------------|---------------55555-----55---------|
         |------------------------|-------55--55--------55--55---------|
         |-----4----------6-------|-5555-------------------------------|
         |---4---4------6---6-----|------------------------------------|
         |-2----------4-------5---|------------------------------------|
         |------------------------|------------------------------------|

         CHORUS
	 |-------------------------------------|
	 |-------------------------------------|
         |-------------------------------------|
         |--55555555-77777777-3333333333333333-|
         |--55555555-77777777-3333333333333333-|
         |--33333333-55555555-1111111111111111-|

         VERSE 2(distorted)
	 |-----------------------------|
	 |-----------------------------|
         |-----------------------------|
         |--6x6x6xx6-6--6x6x6xx6-6--xx-|
         |--6x6x6xx6-6--6x6x6xx6-6--xx-|
         |--4x4x4xx4-4--4x4x4xx4-6--xx-|

         OUTRO (get the f*** up)              (very end)
	 |------------------------------|--------------------------------------|
	 |------------------------------|--------------------------------------|
	 |------------------------------|--------------------------------------|
	 |--55555555--------------------|-444--5---7----444--5---7---44-5/6`8--|
	 |--55555555--(a million times)-|-444--5---7----444--5---7---44-5/6`8--|
         |--33333333--------------------|-222--3---5----222--3---5---22-3/4`6--|

                    
Comments